Te Robare El Amor, Lego (acordes) (ver 2)

Autor: Nigel Brandon | 22681 visualizaciones

asoscdsosggsos


Lego - Te robare el amor

Intro:D#,G#,D#,A#,G# x2

e|-----------------------------------------------------
B|----------------------------------------------11-11--
G|-12-12-12-10-10-10-12-12-12-10-10-10-12-12-12--------
D|-----------------------------------------------------

e|--------------------------------------------------
B|--------------------------------------------------
G|-12-12-12-10-10-10-12-12-12-10-10-10-8-8-10-10----
D|--------------------------------------------------

e|------------------------------------------------------------
B|----------------11-11-11------9-9-9/11-11-11-9-9-9-8-8-8----
G|-12-12-12-8-8-8----------8-8-8---------------------------8~-
D|------------------------------------------------------------

 todo esto se repite dos veces

VERSO:
       D#
Se muy bien
  G#                          D#
q todo lo que se hace aquí se pagara
  G#                     C
Q toda aquella mala fama que me dan
   A#         G#
en contra mía pesa.
     D#
Te jure
  G#                         D#
q todas esas cosas han quedado atrás
  G#                        C
Pero esta noche vida te voy a fallar
    A#             G#
Porque tu amor voy a robar.

CORO:
       D#
Te robare la piel
       G#
Te robare el amor
       D#
Te robare
    A#         G# 
A pedacitos el corazón.
       D#
Te robare la piel
       G#
Te robare el amor
       D#
Te robare
    A#         G# G G#
A pedacitos el corazón.


VERSO:
                 D#
se muy bien luchare
    G#                             D#
para que nuestros sueños se hagan realidad
    G#                      C
para que nadie tenga la oportunidad
   A#                 G#
de hechar por tierra nuestro plan.
      D#
yo lo se
   G#                     D#
si no tengo dinero tengo más que dar
   G#                           C
lo que la gente opine o deje de opinar
   A#            G#
me tiene sin cuidado ya

CORO:
       D#
Te robare la piel
       G#
Te robare el amor
       D#
Te robare
    A#         G# 
A pedacitos el corazón.
       D#
Te robare la piel
       G#
Te robare el amor
       D#
Te robare
    A#         G# 
A pedacitos el corazón.

*aquí en esta parte se mutea D#,G# x2

[Muy buenas damitas y caballeros,

con todo respeto, esto es un asalto.

Aceptamos celulares, anillos, pulseras,

cadenas, efectivo bonos y cheque a fecha]

Solo: D#,G# x2
   D#
E|-------------------------------|
B|-11^?-11/13----------8---------|
G|------------12~-/8-10--8-------|
D|-------------------------8-10~-|
A|-------------------------------|
E|-------------------------------|
   G#
e|--------------------------------------|
B|-8h9p8-9h11p9?8h9p8-6h8p6-8h9p8-------|
G|-----------------------------------8~-|
D|--------------------------------10----|
A|--------------------------------------|
E|--------------------------------------|
    D#                            G#
E|------------------------------|-11-----11-----11-------
B|--66-88-99-88-66-88-99-8~-----|----14^----14^----14^~--
G|--88-88-88-88-88-88-88-8~-----|------------------------
D|------------------------------|------------------------
A|------------------------------|------------------------
E|------------------------------|------------------------

CORO:
       D#
Te robare la piel
       G#
Te robare el amor
       D#
Te robare
    A#         G# 
A pedacitos el corazón.
       D#
Te robare la piel
       G#
Te robare el amor
       D#
Te robare
    A#         G# G G#
A pedacitos el corazón.





Calificar esta versión:
Aviso: Este fichero es trabajo propio de su transcriptor y representa su interpretación personal de la canción. El material contenido en esta página es para exclusivo uso privado, por lo que se prohibe su reproducción o retransmisión, así como su uso para fines comerciales.
Más versiones de Te Robare El Amor, Lego
Te Robaré El Amor
acordes
Te Robare El Amor (ver 2)
acordes
Descubre más canciones de Lego