Hoy Es Tarde Ya, Lego (tablatura)

Autor: daniel fixx | 46225 visualizaciones



Intro : Fa#
        Fa# - Do# - Re#m - Si

e|---------------------------------------------|
B|---------------------------------------------|
G|---------------------------------------------|
D|-8-8-8-9-9-9-11-11-------11-11-11-11/13/11---|
A|-------------------11-11---------------------|
E|---------------------------------------------|

e|---------------------------------------------|
B|---------------------------------------------|
G|---------------------------------------------|
D|-9-9-9-8-8-8----9-9-8~-8-8-8-9-9-9-11-11-----|
A|-------------9~-------------------------11-11|
E|---------------------------------------------|

e|---------------------------------------------|
B|---------------------------------------------|
G|---------------------------------------------|
D|-11-11-11-11/13/11-9-9-9-8-8-8----9-8/-------|
A|-------------------------------9~------------|
E|---------------------------------------------|

solo

e|-----------------------------------------------------|
B|-17-16---------17-16---------------------------------|
G|-------16/12---------16/11-11~---------11~-----------|
D|--------------------------------14/11-------14/11----|
A|-----------------------------------------------------|
E|-----------------------------------------------------|
pm                                    *           *

e|-----------------------------------------------------|
B|---------17-16--------17-16------------19-18---------|
G|-11~-----------16/12--------16/12------------18~~----|
D|-----14----------------------------------------------|
A|-----------------------------------------------------|
E|-----------------------------------------------------|





Calificar esta versión:
Aviso: Este fichero es trabajo propio de su transcriptor y representa su interpretación personal de la canción. El material contenido en esta página es para exclusivo uso privado, por lo que se prohibe su reproducción o retransmisión, así como su uso para fines comerciales.
Más versiones de Hoy Es Tarde Ya, Lego
Hoy Es Tarde Ya
acordes
Hoy Es Tarde Ya
tablatura
Descubre más canciones de Lego