Heartbreaker, Led Zeppelin (acordes)

Autor: ivirb999 | 36065 visualizaciones

ad
Riff 1:

4]------------------------------------------------ 
5]--------3--5--6--7----------------3--5--6--7----
6]--3/--5------------3/--5--5--5--5------------3-  


Riff 2:

4]-----------------------------------------------
5]---5--7--8--9----------------5--7--8--9--------
6]-7/-----------5/--7--7--7--7------------7/--5/- 

Riff 3:

4]---1-3-4-5--------------1-3-4-5----------------
5]-3---------1----3-3-3-3---------1--------------
6]-----------------------------------------------

Riff 4:

4]---3-5-6-7--------------3-5-6-7----------------
5]-5---------3----5-5-5-5---------3--------------
6]-----------------------------------------------

Riff 5:
4]---5-7-8-9--------------5-7-8-9----------------
5]-7---------5----7-7-7-7---------5--------------
6]-----------------------------------------------





 A				     D		    A 
Hey fellas have you heard the news, you know that Annie's back in town.
					D	  A 
It won't take long until someone can see all the fellas lay their money down.
					D	A
Her style is new but the face's the same as it was so long ago.
				      D        A 
But from her eyes a different smile like that of one who knows.

	D  A  D  A  D  A 

[Riff 1] x2
[Riff 2] x1
[Riff 1] x1

       A			       D	  A 
Well it's been ten years and maybe more since I first set eyes on you.
				  D	   A 
The best years of my life gone by, here I Am alone and blue.
				D	A
Some people cry and some people die by the wicked ways of love.
				     D	       A 
But I'll just keep on rollin' along with the grace of the Lord above.

	D  A  D  A  D  A 

Con [Riff 3] x2:

People talkin' all around 'bout the way you left me flat.
I don't care what the people say, I know where their jive is at.

With [Riff 4] x1:

One thing I do have on my mind, if you could clarify please do.

With [Riff 5] x1:

It's the way you call me another guy's name when I try to make love to you.

Toca algo asi luego:

3]------7---7---7---7-7-7--9-9-9-------------------
4]--7s9---9---9---9--------------------------------
5]-------------------------------------------------
6]-------------------------------------------------

Solo

Comentarios del colaborador: Heartbreaker - Led Zeppelin (sin solo) En facebook: http://www.facebook.com/pages/Ivann/178702718866693

Calificar esta versión:
Aviso: Este fichero es trabajo propio de su transcriptor y representa su interpretación personal de la canción. El material contenido en esta página es para exclusivo uso privado, por lo que se prohibe su reproducción o retransmisión, así como su uso para fines comerciales.
Más versiones de Heartbreaker, Led Zeppelin
Heartbreaker
acordes
Heartbreaker
tablatura
Heartbreaker
video guitarra
Descubre más canciones de Led Zeppelin