Escalera Al Cielo, Led Zeppelin (tablatura) (ver 2)

Autor: maxi_la14 | 27824 visualizaciones

E-|-------------5---7--------7---8---------2---------2---0--------------0-----------
B-|----------5----------5-----------5----------3-------------1-------1----1----0-1-1
G-|------5-----------------5-----------5----------2--------------2----------2--0-2-2
D-|---7-------------6------------5---------4-------------3--------------------------
A-|----------------------------------------------------------------------------2-0-0
E-|---------------------------------------------------------------------------------------------------------------------------

E-|---------------------7---------7---8---------8---------2--0------------0---------
B-|------------------5------5------------5---------2--3---------1------1----1---0-1-
G-|-2-------------5------------5------------5-----------2----------2----------2-0-2-
D-|------------7--------6-------------5------------4---------3----------------------
A-|-0/8--7--0-------------------------------------------------------------------2-0-
E-|---------------------------------------------------------------------------------

E-|-----------------0---2-------2---0--------0----------------------------3------3-
B-|-1----------------------3-----------1---------0------------1------1------0------
G-|-2------------0------------2-----------2----------2----------0--------------0---
D-|------------2--------0-----------3------------------------------2---------------
A-|-0--0--2--3-----------------------------------0------0--2--3--------------------
E-|-----------------------------------------------------------------------3--------

E-|-3/2--2--2-------------------2------2--0--------0-----------------------------2--
B-|------3--3----------------1----3----------1--------0-----------------1------3----
G-|------2--2--------------0---------2----------2--------2------------0------2------
D-|-0----0--0------------2------0---------3-------------------------2------0--------
A-|--------------0--2--3------------------------------0-----0--2--3-----------------
E-|---------------------------------------------------------------------------------------------------------------------------

E-|---0--0--0-----------------------------
B-|---1--1--1-----------------------------
G-|---2--2--2-----------------------------
D-|---3--3--3-----------------------------
A-|------------------------------------
E-|-------------------------------------------------------
Calificar esta versión:
Aviso: Este fichero es trabajo propio de su transcriptor y representa su interpretación personal de la canción. El material contenido en esta página es para exclusivo uso privado, por lo que se prohibe su reproducción o retransmisión, así como su uso para fines comerciales.
Más versiones de Escalera Al Cielo, Led Zeppelin
Escalera Al Cielo
tablatura
Escalera Al Cielo (ver 2)
tablatura
Escalera Al Cielo (ver 3)
tablatura
Descubre más canciones de Led Zeppelin