Dazed And Confused, Led Zeppelin (bajo)

Autor: xxblackxpinkxx | 23290 visualizaciones

            "Dazed and Confused", Led Zeppelin (Tablatura original para Bajo)
-------------------------------------------------------------------------------
·Transcripto por: Sebastián Ar.
·Buenos Aires, Argentina, 2009
·Email MSN: playing.the.angel_@hotmail.com
·Sí, sacado de oído.
_____________________________________
+Álbum: "Dazed and Confused Soundtrack for the Motion Picture"
+Afinación: EADG
+Dificultad: Intermedio
_____________________________________

RIFF PRINCIPAL/INTRO DE BAJO:
G|------------------------------
D|------------------------------
A|--10--9--8--7-----------------
E|0--------------0--10--9--8--7-
[repite toda la canción]

Guitarra:
e|12*-----5*-
B|12*-----5*-
G|-----------
D|-----------
A|-----------
E|-----------
[Harmónicos]

BREAKS:
G|----------2h4-----
D|------2h4-----2h4-
A|2-2-2-------------
E|------------------


ACOMPAÑAMIENTO SOLO DE GUITARRA VIOLÍN:
G|--------------
D|4444-2-5555-2-
A|--------------
E|--------------

ACOMPAÑAMIENTO SOLO DE GUITARRA ELÉCTRICA:
G|-----0h2p0--
D|------------
A|2222--------
E|------------
Calificar esta versión:
Aviso: Este fichero es trabajo propio de su transcriptor y representa su interpretación personal de la canción. El material contenido en esta página es para exclusivo uso privado, por lo que se prohibe su reproducción o retransmisión, así como su uso para fines comerciales.
Más versiones de Dazed And Confused, Led Zeppelin
Dazed And Confused
tablatura
Dazed And Confused
bajo
Descubre más canciones de Led Zeppelin