Baby I'm Gonna Leave You, Led Zeppelin (tablatura)

Autor: ArawN | 30993 visualizaciones

Baby I’m gonna leave you

Parte I

A) 2 veces

E |--------0--------|-----------------|-----------------|-----------------| 
B |---------------1-|-------3-------1-|-------3-------1-|-------1-------0-| 
A |-----2-------2---|-----0-------0---|-----2-------2---|-----2-------1---| 
D |---2-------2-----|---2-------2-----|---0-------0-----|---3-------2-----| 
A |-0-------0-------|-----------------|-----------------|-----------------| 
E |-----------------|-3-------3-------|-2-------2-------|-1-------0-------|

E |-------3-------0-|-------3-------0-|-----------------|-----------------|
B |-----------------|-----------------|-------3-------1-|-------1-------0-|
A |-----2-------2---|-----0-------0---|-----2-------2---|-----2-------1---|
D |---2-------2-----|---2-------2-----|---0-------0-----|---3-------2-----|
A |-0-------0-------|-----------------|-----------------|-----------------|
E |-----------------|-3-------3-------|-2-------2-------|-1-------0-------|


B) 1 vez

E |-----------------|-----------------|-----------------|-----------------|
B |-------3-------1-|-------3-------0-|-------3-------1-|-------3-------0-|
G |-----2-------2---|-----1-------1---|-----2-------2---|-----1-------1---|
D |---3-------3-----|---2-------2-----|---3-------3-----|---2-------2-----|
A |-----------------|-----------------|-----------------|-----------------|
E |-1-------1-------|-0-------0-------|-1-------1-------|-0-------0-------|

E |-------3-------0-|-------3-------0-|-----------------|-----------------|
B |-----------------|-----------------|-------3-------1-|-------1-------0-|
A |-----2-------2---|-----0-------0---|-----2-------2---|-----2-------1---|
D |---2-------2-----|---2-------2-----|---0-------0-----|---3-------2-----|
A |-0-------0-------|-----------------|-----------------|-----------------|
E |-----------------|-3-------3-------|-2-------2-------|-1-------0-------|

E |-0--0-0-0—-0---|--0--0---|
B |-1--1-1-1—-1---|--8--6---|
A |-2--2-2-2—-2---|--9--7---|
D |-2--2-2-2—-2---|--7--7---|
A |-0--0-0-0—-0---|--0--0---|
E |---------------|---------|X4


 
Parte II


E |---------------------------------| 
B |-------5-------8-------8-------6-| 
A |-----4-------9-------7-------7---| 
D |---2-------7-------7-------7-----| 
A |-0-------0-------0-------0-------| 
E |---------------------------------|x4


E |-0-0-0-0--0-0--|--3-3-3-3--3-3--|--2-2-2-2--2-2--|--1-1-1-1----0--0--|
B |-1-1-1-1--1-1--|--1-1-1-1--1-1--|--1-1-1-1--1-1--|--1-1-1-1----0--0--| 
A |-2-2-2-2--2-2--|--0-0-0-0--0-0--|--2-2-2-2--2-2--|--2-2-2-2----1--1--| 
D |-2-2-2-2--2-2--|--2-2-2-2--2-2--|--0-0-0-0--0-0--|--3-3-3-3----2--2--|
A |-0-0-0-0--0-0--|--x-x-x-x--x-x--|--x-x-x-x--x-x--|--3-3-3-3----2--2--| 
E |---------------|--3-3-3-3--3-3--|--2-2-2-2--2-2--|--1-1-1-1----0--0--| x2

E |-1-1-1-1---1---1--|--0-0-0-0-0-0---0---|-1-1-1-1---1---1--|---0-0-0-0---0---0---| 
B |-1-1-1-1---1---1--|--0-0-0-0-0-0---0---|-1-1-1-1---1---1--|---0-0-0-0---0---0---| 
G |-2-2-2-2---2---2--|--1-1-1-1-1-1---1---|-2-2-2-2---2---2--|---1-1-1-1---1---1---|
D |-3-3-3-3---3---3--|--2-2-2-2-2-2---2---|-3-3-3-3---3---3--|---2-2-2-2---2---2---|
A |-3-3-3-3---3---3--|--2-2-2-2-2-2---2---|-3-3-3-3---3---3--|---2-2-2-2---2---2---| 
E |-1-1-1-1---1---1--|--0-0-0-0-0-0---0---|-1-1-1-1---1---1--|---0-0-0-0---0---0---|


E |-0--0-0-0—-0---|--0--0---|      |-0--0-0-0—-0--0-|-0---|
B |-1--1-1-1--1---|--8--6---|      |-1--1-1-1--1--1-|-6---|
A |-2--2-2-2—-2---|--9--7---|      |-2--2-2-2—-2--2-|-7---|
D |-2--2-2-2—-2---|--7--7---|      |-2--2-2-2—-2--2-|-7---|
A |-0--0-0-0—-0---|--0--0---|      |-0--0-0-0—-0--0-|-0---|
E |---------------|---------| X2   |----------------|-----| X2


Parte III
E |-------3-------1-|-------1-------0-|-----------------|-------0-------0-|
B |-----1-------1---|-----0-------0---|-------5-------3-|-----------------| 
A |---2-------2-----|---0-------0-- --|-----2-------2---|-----2-------1---| 
D |-----------------|-----------------|---4-------4-----|---3-------2-----| 
A |-0-------0-------|-----------------|-----------------|-----------------| 
E |-----------------|-3-------3-------|-2-------2-------|-1-------0-------| 
E |-----------------|-----------------|-----------------|-----------------| 
B |-------1-------1-|-------1-------1-|-------1-------1-|-------1-------0-| 
A |-----2-------2---|-----0-------0---|-----2-------2---|-----2-------1---|
D |---2-------2-----|---2-------2-----|---0-------0-----|---3-------2-----| 
A |-0-------0-------|-----------------|-----------------|-----------------| 
E |-----------------|-3-------3-------|-2-------2-------|-1-------0-------| 
Final

E |--------|--------|--------|--------|-------0-|-------0-|-------0-|--0--|
B |--5-5-5-|--4-4-4-|--3-3-3-|--3-3-3-|---0-----|---0-----|---0-----|--0--|
A |--2-2-2-|--2-2-2-|--2-2-2-|--2-2-2-|--5---5--|--5---5--|--5---5--|--5--|
D |--------|--------|--------|--------|-7---7---|-7---7---|-7---7---|--7--|
A |-4------|-3------|-2------|-1------|0---0----|0---0----|0---0----|--0--|
E |--------|--------|--------|--------|---------|---------|---------|-----|
Calificar esta versión:
Aviso: Este fichero es trabajo propio de su transcriptor y representa su interpretación personal de la canción. El material contenido en esta página es para exclusivo uso privado, por lo que se prohibe su reproducción o retransmisión, así como su uso para fines comerciales.