All My Love, Led Zeppelin (tablatura)

Autor: ayelen_fs | 43162 visualizaciones

All My Love (Acustica)


 Intro

e|----------------------------------|---------------------------------|
B|---------2----------7/6--6--------|---------2---------------7p5-----|
G|---------3—-54-4---6/5--5--------|---------3—-54-4------7---------|
D|-0h2--------4---4-----------------|-0h2--------4---4----------------|
A|-----0----------------------------|-----0--------------5------------|
E|----------------------------------|---------------------------------|



e|----------------------------------|---------------------------2-----|
B|---------2----------7/6--6--------|---------2---------------3---3---|
G|---------3—-54-4---6/5--5--------|---------3—-54-4------2-------2-|
D|-0h2--------4---4-----------------|-0h2--------4---4----0-----------|
A|-----0----------------------------|-----0-------------0-------------|
E|----------------------------------|---------------------------------|


solo

e|----------------------------------|---------------------------------|
B|----------------------------------|---------------------------------|
G|-4/5-5-5-5/7-7—-7/97-5-5/7-------|-4/5-5-5-5/7-7---5/7-------------|
D|----------------------------------|---------------------------------|
A|-2/3-3-3-3/5-5—-5/75-3-3/5-------|-2/3-3-3-3/5-5---3/5-------------|
E|----------------------------------|---------------------------------|

e|----------------------------------|---------------------------------|
B|----------------------------------|---------------------------------|
G|-4/5-5-5-5/7-7—-7/97-5-5/7-------|-4/5-5-5-5/7-7—-7/975-4/5------|
D|----------------------------------|---------------------------------|
A|-2/3-3-3-3/5-5—-5/75-3-3/5-------|-2/3-3-3-3/5-5--5/753-3/5------|
E|----------------------------------|---------------------------------|

guitarra, la base acompaña con los acordes Am, G y Dm


    C         Em          Am     G       F
e|-------------------------------------------|
B|-------------------------------------------|
G|-9br-7-7h9—9br-7-7h9---7br-5-5h7--4-5-4--2-|   2 Veces
D|-------------------------------------------|
A|-------------------------------------------|
E|-------------------------------------------|

    Am        G      Dm             Am       G      Dm
e|------------------1-1-1---5-7-9---|-0-0---------1-1-1---------------|
B|-------1-1--------3-3-3-7---------|-1-1---------3-3-3----9p7--------|
G|-------2-2-54-4--2-2-2-----------|-2-2--54-4--2-2-2--7------------|
D|-0h2-----2-4---4------------------|-2-2--4---4----------------------|
A|-----0----------------------------|-0----0---0----------------------|
E|----------------------------------|-0-------------------------------|

  Am    G     Dm                   Am      G     Dm  
e|-0-0-3-3-3-1-1--------------------|-0-0-3-3-3-1-1--0-1--------------| 
B|-1-1-3-3-3-3-3--------------------|-1-1-3-3-3-3-3----3--------------|
G|-2-2-0-0-0-2-2—--5h7-7h9----------|-1-1-0-0-0-2-2----2--------------|
D|-2-2-0-0-0------------------------|-2-2-0-0-0-----------------------|
A|-0---2-2--------------------------|-0---2-2-------------------------|
E|-0---3-3--------------------------|-0---3-3-------------------------|

    C         Em          Am     G       F
e|-------------------------------------------|
B|-------------------------------------------|
G|-9br-7-7h9—9br-7-7h9---7br-5-5h7--4-5-4--2-|   
D|-------------------------------------------|
A|-------------------------------------------|
E|-------------------------------------------|

    C              Em               Am      G        F
e|--------------------------------------------------------|
B|-17br-15-15h17—-17br-15-15h17---15br-13-13-12-13-12-10--|
G|--------------------------------------------------------|
D|--------------------------------------------------------|
A|--------------------------------------------------------|
E|--------------------------------------------------------|

e|-------------------------------------------|  3 veces   
B|-------------------------------------------|    
G|-3-3-3-2-2-2-3-3-3-2-2-2-0h2-0-------------|   
D|-------------------------------------------|   
A|-------------------------------------------|   
E|-------------------------------------------|   

   Am      C       G       F       Am       C      G      F
E|-3/53-----------5/75-----------3/53------------------|
B|---------5/75-----------7/97-------------7------------|
G|--------------------------------------------------------|
D|--------------------------------------------------------|
A|--------------------------------------------------------|
E|--------------------------------------------------------|

Solo

E|------------------------------------------5-5h6---5-5h6-7/9-9/11-11/12
B|------------------------3-4-3-3h4p3---6-4-------7---------------------
G|-3-5--3-4-3-3h4p3---6-4-------------4---------------------------------
D|------------------4---------------------------------------------------
A|----------------------------------------------------------------------
E|----------------------------------------------------------------------

e|-10-8h10p8-6-8-------------------------7---7----
B|---------------5h7---8-7-5-7p5-5h7---5---5------
G|-------------------6---------------6------------
D|------------------------------------------------
A|------------------------------------------------
E|------------------------------------------------

e|-----------------3h5-------------------------5-8p7p5-8p7p5-8p7p5-8p7p5
B|-3h5---6-5-3-5p3-------6-5-3-5p3-5/7-5—-4/5---------------------------
G|-----4---------------4------------------------------------------------
D|----------------------------------------------------------------------
A|----------------------------------------------------------------------
E|----------------------------------------------------------------------

e|-9-7--------------------------------------------|
B|-------10-9-7-9p7-8-5h7---8-5h7-9-6h8-10-7h9----|
G|-----8------------------6-----------------------|
D|------------------------------------------------|
A|------------------------------------------------|
E|------------------------------------------------|   
fin del solo

la base acompaña con los acordes Am, G y Dm

e|-------------------------------------------|  
B|-------------------------------------------|  
G|-3-3-3-2-2-2-3-3-3-2-2-2-0h2-0-------------|   3 veces   
D|-------------------------------------------|   
A|-------------------------------------------|   
E|-------------------------------------------|   

   Am      C       G       F       Am       C      G      F
E|-3/53-----------5/75-----------3/53------------------|
B|---------5/75-----------7/97-------------7------------|
G|--------------------------------------------------------|
D|--------------------------------------------------------|
A|--------------------------------------------------------|
E|--------------------------------------------------------|

  Am    G   Dm                        Am   G   Dm  
e|-0-0-3-3-1-1---1------------------|-0-0-3-3-1-1---------------------| 
B|-1-1-3-3-3-3-----3----------------|-1-1-3-3-3-3----7p5---7p5---7p5--|
G|-2-2-0-0-2-2—---------------------|-1-1-0-0-2-2--7-----7-----7------|
D|-2-2-0-0-0-0----------------------|-2-2-0-0-0-0---------------------|
A|-0---2----------------------------|-0---2---------------------------|
E|-0---3----------------------------|-0---3---------------------------|

    Am  G    Dm                        Am  G     Dm  
e|-0-0-3-3-3-1-1-1------------------|-0-0-3-3-3-1-1-1-----------------| 
B|-1-1-3-3-3-3-3-3------------------|-1-1-3-3-3-3-3-3-----------------|
G|-2-2-0-0-0-2—2-2------------------|-1-1-0-0-0-2-2-2-----------------|
D|-2-2-0-0-0-0-0-0------------------|-2-2-0-0-0-0-0-0-----------------|
A|-0---2-2-2------------------------|-0---2-2-------------------------|
E|-0---3-3--------------------------|-0---3-3-------------------------|

    C         Em          Am     G       F
e|-------------------------------------------|
B|-------------------------------------------|
G|-9br-7-7h9—9br-7-7h9---7br-5-5h7--4-5-4--2-|   2 Veces
D|-------------------------------------------|
A|-------------------------------------------|
E|-------------------------------------------|
    C            Em          Am     G     F
e|------------------------------------------|
B|------------------------------------------|
G|-11br-9-9h11--11br-9-9h11—9br-7-7--6-7-6—4|    2 Veces
D|------------------------------------------|
A|------------------------------------------|
E|------------------------------------------|

    C              Em                   Am     G             F
e|--------------------------------------------------------------------|
B|----------------------------------11--------------------------------|
G|-11br-9-9h11-11-11br-9-9h11-11h13----9br-7-7—7h9p7-7-9-11-11-9------|
D|---------------------------------------------------------------7h9-7|
A|--------------------------------------------------------------------|
E|--------------------------------------------------------------------|
Calificar esta versión:
Aviso: Este fichero es trabajo propio de su transcriptor y representa su interpretación personal de la canción. El material contenido en esta página es para exclusivo uso privado, por lo que se prohibe su reproducción o retransmisión, así como su uso para fines comerciales.
Más versiones de All My Love, Led Zeppelin
All My Love
acordes
All My Love
tablatura
All My Love (ver 2)
tablatura
Descubre más canciones de Led Zeppelin