Sin Otro Sentido, Lasso (tablatura)

Autor: Anónimo | 20822 visualizaciones

¡ESPERO QUE SEA DE SU AGRADO!

ACLARACIONES:
**Entre paréntesis se indica el traste a partir del cual
se SUGIERE formar el acorde al cual afecta**
**Esta es la versión del video para sólo guitarra**

INTRO 1:
  C                            Am
e|------------------------------------------------------|
b|-------------------1--1)*2---------------------1--1)*2|
g|-------------0--0------------------------2--2---------|
d|-------2--2------------------------2--2---------------|
a|(3--3-----------------------(0--0---------------------|
E|------------------------------------------------------|
  F
e|------------------------|
b|-------------------1--1-|
g|-------------2--2-------|
d|-------3--3-------------|
a|-3--3-------------------|
E|------------------------|

INTRO 2:
  C                     F
e|---------------------------------1-1)*2|
b|-------------1-1)*2----------1-1-------|
g|--------0-0--------------2-2-----------|
d|----2-2-------------(3-3---------------|
a|(3-3-----------------------------------|
E|---------------------------------------|

  Am                    G
e|-------------0-0)*2--------------3-3)*2|
b|---------1-1-----------------3-3-------|
g|-----2-2-----------------0-0-----------|
d|(2-2----------------(0-0---------------|
a|---------------------------------------|
E|---------------------------------------|


RITMO:
  C     G         Am     C     G         F
e|-0----------3-3--0-0----0----------5-5--1-1-|
b|-1-----3-3--3-3--1-1----1-----3-3--5-5--1-1-|
g|-------0-0-------2-2----------0-0-------2-2-|

   C     G         Am     C     G         Am
e|-0----------3-3--0-0----0----------5-5--5-5-5-5-5-5-|
b|-1-----3-3--3-3--1-1----1-----3-3--5-5--5-5-5-5-5-5-|
g|-------0-0-------2-2----------0-0-------5-5-5-5-5-5-|

ACLARACIONES:
**Entre paréntesis se indica el traste a partir del cual
se SUGIERE formar el acorde**

ESTROFA 1:
                        C         G          Am
  Si me dijeras que no hay cielo gris, son mentiras

C  G        F
Ironía, una cicatriz

   C                G             Am
Inventas y creas maneras de olvidar que no hay final

C     G           Am
Pero siempre terminas igual.


PRE-ESTRIBILLO:
C     E7    Am
Caras de papel

F              C  E7     Am
Cruzan en tus labios de miel

F         C      E7    Am
Imaginas gritos sin dolor

F             C     E7    Am
Golpes suaves de resignación.


ESTRIBILLO:
  C(3ero)                   G(3ero)
Gotas colman vasos, rayos de color

          Am(5to)                   F(1ero)
Olvidan reír, atardecer, libre del viento infeliz

       G(3ero)
Ya no quiero recordar.

. RITMO .

ESTROFA 2:
                     C      G         Am
Y si al miedo ya lo viste pasar, pensarías

C     G             F
La verdad no tiene identidad

C                          G
Lo cuentas, lo cantas, lo silbas,

       Am
Sin saber como cambiar

C     G             Am
Algún día no será igual

.PRE-ESTRIBILLO, ESTRIBILLO (2 VECES).

SOLO:
e|-------------------------------------------|
b|-------------------------------------------|
g|---------9-----------9---------------------|
d|-8-7-h-8------8-7-h-8-------8-8-s-10-8-s-3-|
a|-----------10-----------10-----------------|
E|-------------------------------------------|

e|--------------------------------9-s-12-|
b|-14-13-14-13-14-b-16-----12-14---------|
g|---------------------13----------------|
d|---------------------------------------|
a|---------------------------------------|
E|---------------------------------------|

 Am        Am      F            G
Hoy te vas a creer que no existe razón

 Am        Am      F            G
Hoy te vas a creer que no existe razón

 F           G
Que no existe razón

 F              G
Que no existe razón

.ESTRIBILLO(2 VECES), RITMO.
Calificar esta versión:
Aviso: Este fichero es trabajo propio de su transcriptor y representa su interpretación personal de la canción. El material contenido en esta página es para exclusivo uso privado, por lo que se prohibe su reproducción o retransmisión, así como su uso para fines comerciales.
Más versiones de Sin Otro Sentido, Lasso
Sin Otro Sentido
acordes
Sin Otro Sentido
tablatura
Descubre más canciones de Lasso