Hawaii, Las Pelotas (tablatura)

Autor: Anónimo | 38484 visualizaciones



e|-------------------10-11-13--11-10-11-10-----10-11-10-----------------
B|---------10-11-13-------------------------13----------13-13----11-13--
G|-9-10-12----------------------------------------------------10--------
D|----------------------------------------------------------------------
A|----------------------------------------------------------------------
E|----------------------------------------------------------------------

e|-10-10-10-----------------------------------------------
B|----------13-13-11-11-10-10-8-10-11-13-11-11-10---------
G|------------------------------------------------12-10---
D|--------------------------------------------------------
A|--------------------------------------------------------
E|--------------------------------------------------------

e|--------------------------------------------------------
B|--------------------------------------------------------
G|-10-12-10-10-8-8-7-8-7----------------------------------
D|--------------------------------------------------------
A|--------------------------------------------------------
E|--------------------------------------------------------



bueno.. esa la transcripcion de la intro de hawaii adaptada a guitarra

Fijense bien el ritmo, es muy importante..





Calificar esta versión:
Aviso: Este fichero es trabajo propio de su transcriptor y representa su interpretación personal de la canción. El material contenido en esta página es para exclusivo uso privado, por lo que se prohibe su reproducción o retransmisión, así como su uso para fines comerciales.
Más versiones de Hawaii, Las Pelotas
Hawaii
acordes
Hawaii (ver 2)
acordes
Hawaii
tablatura
Descubre más canciones de Las Pelotas