Esperando El Milagro, Las Pelotas (tablatura)

Autor: Anónimo | 31105 visualizaciones



Intro:Lam-DoM x 4 (2 +2)

Lam       DoM    Lam                             DoM
Voces de noche dicen que ya no importa de donde venís
SolM              Lam          SolM                           ReM
Si traes dinero podrás alimentar, junto a la miseria vive el hombre

Lam-DoM-Mim (Arpegios 1 y 2)

Lam         DoM    Lam                           DoM
Sin darse vuelta lejana intuición porque tenías razón
SolM                     Lam                SolM                    ReM
dentro del palacio los jueces se ríen de vos, finalmente descubrimos algo

Lam-DoM-Mim
Esperando el milagro
de creer que un día                             est. 1
llenarás la fuente,
cambiarás tu vida
FaM                Lam                 FaM
sobre la cornisa, sobre la cornisa..

Lam-DoM-Mim
Esperando el milagro
suspirando penas,
casi sin aliento vives,
pasarás los días                                est. 2
sobre la cornisa
sin saber por donde,
suspirando penas
casi sin aliento,
casi sin aliento vives..
FaM                Lam             FaM
Sobre la cornisa, sobre la cornisa..

est. 2

FaM  Lam  FaM  Mi

E|---------------------|-----------0-------------|
B|----------------1----|---------0---------------|
G|--2---1-------0------|-------0------0---0------| arpegio 1
D|----2---2---2--------|-----2----------2--------|
A|--0-------3----------|-------------------------|
E|---------------------|--0----------------------|

E|---------------------|--0----------------------|
B|----------------1----|--0----------------------|
G|--2---1-------0------|--0----------------------| arpegio 2
D|----2---2---2--------|--2----------------------|
A|--0-------3----------|--2----------------------|
E|---------------------|--0----------------------|

E|------------------------0---|
B|------------------------0---|
G|--2--------5------------0---|  ESTRIBILLO
D|--2--2-----5--------2-------|
A|--0-----0--3--3--0--2-------|
E|--------------------0-------|
          final
E|--------------------------------0--------|
B|--------------------------------0--------|
G|----------0-2-2-2-2--0----------0--------|
D|--3-3-3-3--------------3-3-3-3--2--------|
A|--3-3-3-3--------------3-3-3-3--2--------|
E|--1-1-1-1--------------1-1-1-1--0--------|

Fuente original: LaCuerda
Colaborador original: capretti, armando [tanofachamartel@hotmail]





Calificar esta versión:
Aviso: Este fichero es trabajo propio de su transcriptor y representa su interpretación personal de la canción. El material contenido en esta página es para exclusivo uso privado, por lo que se prohibe su reproducción o retransmisión, así como su uso para fines comerciales.
Más versiones de Esperando El Milagro, Las Pelotas
Esperando El Milagro
acordes
Esperando El Milagro
tablatura
Descubre más canciones de Las Pelotas