Corderos En La Noche, Las Pelotas (tablatura)

Autor: Anónimo | 25196 visualizaciones



ESTE ES EL SOLO DE CORDEROS ESPERO QUE LES SIRVA

 e ----------------------------------------------------
 B ----------------------------------------------------
 G -----------3-5---3-5-5--3----3--5--5----------------
 D -------3-5----------------5-5--------5--5-----------
 A ----3-5---------------------------------------------
 E ----------------------------------------------------




 e ----------------------------------------------------
 B ----------------------------------------------------
 G ---5-4-3------5-4-3----------/11--11----------------
 D --------5-4-3---------------------------------------
 A ----------------------------------------------------
 E ----------------------------------------------------



 e ----------------------------------------------------
 B -------------10---12-10-----------------------------
 G ----11--9-11------------11---9----11-10-9-----------
 D -------------------------------11---------11-10-9---
 A ----------------------------------------------------
 E ----------------------------------------------------




 e ---------------------------------------13-----------
 B -------------------------------------12-------------
 G -----11-10-9-----------------------11---------------
 D -------------11--10-9----9P11-9P11------------------
 A ----------------------------------------------------
 E ----------------------------------------------------

Fuente original: LaCuerda
Colaborador original: bartolo serra [bartucia3000@hotmail.com]





Calificar esta versión:
Aviso: Este fichero es trabajo propio de su transcriptor y representa su interpretación personal de la canción. El material contenido en esta página es para exclusivo uso privado, por lo que se prohibe su reproducción o retransmisión, así como su uso para fines comerciales.
Más versiones de Corderos En La Noche, Las Pelotas
Corderos En La Noche
acordes
Corderos En La Noche
tablatura
Descubre más canciones de Las Pelotas