Capitán América, Las Pelotas (tablatura)

Autor: Anónimo | 37765 visualizaciones



A                         G
Moviendose torres de cristal irrompible
A          G        A
frente a mi,garantizado.

                           G                        
Caen sobre mi las cadenas de supermercados
A                 G    
compre mas barato, garantizado.

ESTRIBILLO
------------------------------
D
Moviendose cae el sol en mi
                  A  
correrse para el fondo.
Bm             G
Y si no puedo ver donde voy
Bm             A
parece que me pase.
------------------------------


America debo estar en america del sur

bien al sur! garantizado.

Salpicandome sobre la ropa recien lavada

con javon en polvo, garantizado.

ESTRIBILLO
                                      ^^^            ^^^^
E--------------------------------------------------------
B--------------8-6--------------8-6-------9-9-8----------
G------------8-----8----------------8-7---------8-10-8---
D--6-5---5-8---------5-7-8--8-8--------------------------
A------6-------------------------------------------------
E--------------------------------------------------------


ESPERO QUE SE DIVIERTAN Y LO DISFRUTEN

(EL REVELDE) SI! CON V





Calificar esta versión:
Aviso: Este fichero es trabajo propio de su transcriptor y representa su interpretación personal de la canción. El material contenido en esta página es para exclusivo uso privado, por lo que se prohibe su reproducción o retransmisión, así como su uso para fines comerciales.
Más versiones de Capitán América, Las Pelotas
Capitan America
acordes
Capitán América
tablatura
Descubre más canciones de Las Pelotas