Lo Más Lindo, Las Pastillas Del Abuelo (tablatura)

Autor: nanu | 43840 visualizaciones

                            
                              LO MÁS LINDO

INTRO:
-----------------------------------------------------------------------
---------0--------------0---------------0-------------0------------0---
-------2----2--------2-----2---------2----2--------2----2-------2----2-
----0---------0---0----------0----0---------0---0---------0---0-------0
-----------------------------------------------------------------------
--3-------------3---------------1-------------1-------------0----------

------------------------------0----------------------------------------
---------0-------------1H2P1-----1-------------------------------------
-------2---2--------0--------------0-----------------------------------
-----0-------0----2----------------------------------------------------
----------------2------------------------------------------------------
--0--------------------------------------------------------------------

PRIMERA PARTE:

-----------------------------------------------------------------------
---------0--------------0---------------0-------------0------------0---
-------2----2--------2-----2---------2----2--------2----2-------2----2-
----0---------0---0----------0----0---------0---0---------0---0-------0
-----------------------------------------------------------------------
--3-------------3---------------1-------------1-------------0----------
     LO MÁS LINDO DEL MAR          ES CUANDO POR COMPLETO   LO MOJA LA
-----------------------------------------------------------------------
---------0-------------1-----------1-----------------------------------
-------2---2--------0----0-------0---0---------------------------------
-----0-------0----2--------2---2-------2-------------------------------
----------------2------------2-----------------------------------------
--0--------------------------------------------------------------------
  HERMOSURA      DE TU PELO


-----------------------------------------------------------------------
---------0--------------0---------------0-------------0------------0---
-------2----2--------2-----2---------2----2--------2----2-------2----2-
----0---------0---0----------0----0---------0---0---------0---0-------0
-----------------------------------------------------------------------
--3-------------3---------------1-------------1-------------0----------
    LO GRACIOSO DEL SOL           ES CUANDO NO VE NADA        LE ENCAN-
------------------------------0----------------------------------------
---------0-------------1H2P1-----1-------------------------------------
-------2---2--------0--------------0-----------------------------------
-----0-------0----2----------------------------------------------------
----------------2------------------------------------------------------
--0--------------------------------------------------------------------
    DILA LOS OJOS  LA LUZ DE TU MIRADA

ESTRIBILLO:
 Am                               F
   LO LINDO DE LA NOCHE Y LAS ESTRELLAS
 G                                 Am
   ES QUE TU ROSTRO HABITA EN TODAS ELLAS
 Am                             F    G
   LO LINDO DE MI VIDA ES EL SABER 
 Am           G         F    G
   QUE LA GOBIERNA TU SER
 Am           G         F    G
   QUE LA GOBIERNA TU SER
 Am           G         F
   QUE LA GOBIERNA TU SER

PUENTE:
--------2H3------------2-----------------------------------------------
-----1------1--------1---1---------------------------------------------
---2----------2----2-------2-------------------------------------------
-0--------------0------------------------------------------------------
---------------------------------2P0-----------------------------------
-----------------------------------------------------------------------


-----------------------------------------------------------------------
---------0--------------0---------------0-------------0------------0---
-------2----2--------2-----2---------2----2--------2----2-------2----2-
----0---------0---0----------0----0---------0---0---------0---0-------0
-----------------------------------------------------------------------
--3-------------3---------------1-------------1-------------0----------

------------------------------0----------------------------------------
---------0-------------1H2P1-----1-------------------------------------
-------2---2--------0--------------0-----------------------------------
-----0-------0----2----------------------------------------------------
----------------2------------------------------------------------------
--0--------------------------------------------------------------------


SEGUNDA PARTE:

-----------------------------------------------------------------------
---------0--------------0---------------0-------------0------------0---
-------2----2--------2-----2---------2----2--------2----2-------2----2-
----0---------0---0----------0----0---------0---0---------0---0-------0
-----------------------------------------------------------------------
--3-------------3---------------1-------------1-------------0----------
     LO LINDO DE TOCARTE ES QUE ME MATA                       NO ME DAS
-----------------------------------------------------------------------
---------0-------------1-----------1-----------------------------------
-------2---2--------0----0-------0---0---------------------------------
-----0-------0----2--------2---2-------2-------------------------------
----------------2------------2-----------------------------------------
--0--------------------------------------------------------------------
  TIEMPO NI DE ENTRAR EN COMA


-----------------------------------------------------------------------
---------0--------------0---------------0-------------0------------0---
-------2----2--------2-----2---------2----2--------2----2-------2----2-
----0---------0---0----------0----0---------0---0---------0---0-------0
-----------------------------------------------------------------------
--3-------------3---------------1-------------1-------------0----------
   LO MÁS LNDO DEL VIENTO ES CUANDO TRATA                   DE IR DE LA    


------------------------------0----------------------------------------
---------0-------------1H2P1-----1-------------------------------------
-------2---2--------0--------------0-----------------------------------
-----0-------0----2----------------------------------------------------
----------------2------------------------------------------------------
--0--------------------------------------------------------------------
  MANO JUNTO CON TU AROMA



ESTRIBILLO:
Am                          F
  PERO ERES PARA MI COMO LA LUNA
G                                  Am
  QUE PODRÍA CONTEMPLARTE HASTA SER VIEJO
Am                              F      G
  RADIANTE Y MÁS HERMOSA QUE NINGUNA
Am        G         F     G   
  PERO SIEMPRE TAN LEJOS
Am        G         F     G
  PERO SIEMPRE TAN LEJOS
Am        G         F 
  PERO SIEMPRE TAN LEJOS

E      F

E      F

E      F  G 

Am        G         F      G  
  PERO SIEMPRE TAN LEJOS
Am        G         F      G
  PERO SIEMPRE TAN LEJOS
Am        G         F
  PERO SIEMPRE TAN LEJOS 

FINAL:

--------2H3------------2-----------------------------------------------
-----1------1--------1---1---------------------------------------------
---2----------2----2-------2-------------------------------------------
-0--------------0------------------------------------------------------
---------------------------------2P0-----------------------------------
-----------------------------------------------------------------------


-----------------------------------------------------------------------
---------0--------------0---------------0-------------0------------0---
-------2----2--------2-----2---------2----2--------2----2-------2----2-
----0---------0---0----------0----0---------0---0---------0---0-------0
-----------------------------------------------------------------------
--3-------------3---------------1-------------1-------------0----------

------------------------------0----------------------------------------
---------0-------------1H2P1-----1-------------------------------------
-------2---2--------0--------------------------------------------------
-----0-------0----2----------------------------------------------------
----------------2------------------2P0-----------------------------------
--0------------------------------------3-------------------------------
Aviso: Este fichero es trabajo propio de su transcriptor y representa su interpretación personal de la canción. El material contenido en esta página es para exclusivo uso privado, por lo que se prohibe su reproducción o retransmisión, así como su uso para fines comerciales.
Más versiones de Lo Más Lindo, Las Pastillas Del Abuelo
Lo Mas Lindo
acordes
Lo Mas Lindo (ver 2)
acordes
Lo Más Lindo
tablatura
Lo Más Lindo (ver 2)
tablatura
Lo Mas Lindo (ver 3)
tablatura
Lo Mas Lindo (ver 4)
tablatura
Descubre más canciones de Las Pastillas Del Abuelo

Comentarios en Facebook: