La Cerveza, Las Pastillas Del Abuelo (tablatura)

Autor: pablo08 | 28468 visualizaciones

Intro: E-B-A-C#m-B



 E                B                  A
Cuando la cervezaa, se calienta demasiado
       C#m                      B            E
el cenicero esta lleno y el paquete vacio
                B                      A
Pierdo la cabeza y me siento un desgraciado
           C#m              B                F#
como quien tiene por hobby al vino del estio

                     A                       E
trate de que le corazon no me diera explicacion
             B                       F#
para no derramar lagrimas en tu honor
                   A                         E
trate de que la razon me llevara el buen camino
                        B                     D   A
ella me presento al vino al que agradecido estooooooy


Solo 1: [1:26]

Base: E-B-A-C#m-B

E-10/12-12-12---------------|-----------12-11-----------------|
B-------------10-10-10-12-12|-----10-11-------12-10-----------|
G---------------------------|-9h11------------------11-9-8----|
D---------------------------|------------------------------9--|
A---------------------------|---------------------------------|
E---------------------------|---------------------------------|


E----------------------------12--------------------12-----
B----------9-12b(13)(12)(14)---12b(14)-12-10-9-10---10-12-
G-8h9-9-11------------------------------------------------
D---------------------------------------------------------
A---------------------------------------------------------
E---------------------------------------------------------


E-14------16------17-17-16|--16b(17)-16-14-12-11-12b(13)(14)-|
B---12-14---14-16---------|----------------------------------|
G-------------------------|----------------------------------|
D-------------------------|----------------------------------|
A-------------------------|----------------------------------|
E-------------------------|----------------------------------|

E-12-11------------|------------------12-9|--------12-11---
B-------12b(13)(12)|-12b(13)(12)-10-9-----|-9h10-12-----12-
G------------------|----------------------|----------------
D------------------|----------------------|----------------
A------------------|----------------------|----------------
E------------------|----------------------|----------------

E-------------------------|*---9------------------------------|
B-------------------------|-9b--12-9-------------12b(14)-(12)-|
G-11-9-8---11b(12)(11)(13)|---------11-9--------9-------------|
D--------9----------------|--------------11-9-11--------------|
A-------------------------|-----------------------------------|
E-------------------------|-----------------------------------|

*esa parte es bien rapido


C#m               E
y hoy resulta que ayer
                E|-12-----------|
                B|---12-9----12-|
                G|--------11b---|

                      B
la princesa se hizo reina
                B|-------------|
                G|------9-11b--|
                D|-9-11--------|

                      A
aquel cepillo sin dientes
                    B|------------|
                    G|--------9---|
                    D|-7-9-11--11-|



                      C#m
hoy es que mejor peina
                    E|------------|
                    B|-12-9-------|
                    G|------11-9--|


C#m                        E
ya no besas el somier aquel amor tan fugas
 B                       A                                  E
que en ese cuarto de hotel se declaraba inmortal
                                   B|-----------9-10-10/12-12-|
                                   G|-4-6-8-9-11--------------|
E                  B               A
cuando las estrellas iluminan mi pasado
      C#m                 B                   E
puede verte de rodillas pidiendome que vuelva
                 B                      A
y hoy en mi ventana veo llover sobre mojado
             C#m                  B              F#
me siento un niño indefenso en medio de la selva

                    A                      E
trate de que mis ojos, no te vieran tan lejos
                     B                    F#
pero siempre sera asi, mi triste porvenir
                    A                           E
trate de que mi pasion, se perdiera entre el monton
                       B                  D     A
pero siempre sera igual, siempre se volveraaaa...al primer amor
                                               E|----------12--|
                                               B|------9-/10---|
                                               G|--------------|
Solo 2: [3:24]

Base: E-B-A-C#m-B Termina B-A-B-A-E

E------12------14---------------------------------|
B-9-/10---9-/10---9 /10--12-12-12p10-10-10p9-9----|
G----------------------------------------------11-|
D-------------------------------------------------|
A-------------------------------------------------|
E-------------------------------------------------|

E---------------------------------------|
B--------------12-----------------------|
G-11-11-9-8-8h9--9--------8-9-8-11------|
D------------------7h9-11---------11b-11|
A---------------------------------------|
E---------------------------------------|

E-12---------------9------11-/12-11------------------------|
B---12-9b----9-9-----10-9----------9----12b-10-9b----------|
G---------9------11------------------11------------11-11b--|
D----------11----------------------------------------------|
A----------------------------------------------------------|
E----------------------------------------------------------|

E---9-11-12-14--12-11-12/14-----------9--------------------|
B-12----------10-----------12-10--9h10--12b(14)(12)-10-9---|
G-------------------------------------------------------11b|
D----------------------------------------------------------|
A----------------------------------------------------------|
E----------------------------------------------------------|

                                                            E
E-------------9---------------------------------------------7-|
B--------10/9--12-10-9---12b(14)(12)-10--12b(14)(12)-10--9--9-|
G-9-8-9---------------11------------------------------------9-|
D-----------------------------------------------------------9-|
A-----------------------------------------------------------7-|
E-------------------------------------------------------------|



 |-------------------------------------------------------|
 |  NOTACION                                             |
 | ----------                                            |
 |                                                       |
 | b: bending o estirar cuerda                           |
 | h: hammer on o ligado ascendente                      |
 | p: pull off o ligado descendente                      |
 |                                                       |
 | ej:12b(13)(12)(14)                                    |
 |  significa tocar el 12 y estirarlo hasta que suene    |
 |  como un 13 bajarlo a 12 y estirarlo de nuevo         |
 |  hasta que suene como un 14.todo esto muy rapido asi  |
 |  no pierde sonido.                                    |
 |  La velocidad varia segun como toca el puenteo en el  |
 |  tema.                                                |
 |-------------------------------------------------------|

Infaltable

La Cuerda
Calificar esta versión:
Aviso: Este fichero es trabajo propio de su transcriptor y representa su interpretación personal de la canción. El material contenido en esta página es para exclusivo uso privado, por lo que se prohibe su reproducción o retransmisión, así como su uso para fines comerciales.
Más versiones de La Cerveza, Las Pastillas Del Abuelo
La Cerveza
acordes
La Cerveza (ver 2)
acordes
La Cerveza (ver 3)
acordes
La Cerveza (ver 4)
acordes
La Cerveza (ver 5)
acordes
La Cerveza
tablatura
La Cerveza (ver 2)
tablatura
Descubre más canciones de Las Pastillas Del Abuelo