Fuerza, Locura Y Libertad, Las Pastillas Del Abuelo (tablatura) (ver 3)

Autor: Anónimo | 26629 visualizaciones

Tener en cuenta golpear las cuerdas con la mano derecha.

---------3-----------3---------1-------3----------8--11-|
-----------------------4-------1-------3---9h11---9--9--|
-3h5-3h5-----3h5-3h5-----------------------8------------|
-3h5-3h5-----3h5-3h5------------------------------------|
--------------------------------------------------------|
--------------------------1-2----2-3-4------------------|

---------3-----------3--------1--------3------------9s10|
-----------------------4------1--------3--9--11--9--9h11|
-3h5-3h5-----3h5-3h5----------------------8--8---8------|
-3h5-3h5-----3h5-3h5------------------------------------|
--------------------------------------------------------|
--------------------------1-2----2-3-4------------------|

10h11p10------------------------------------------------|
11-------11---------------------------------------------|
-----------10p8-7---------------------------------------|
--------------------------------------------------------|
--------------------------------------------------------|
--------------------------------------------------------|


b= Estirar
p= Ligado Desc.
h= Ligado Asc.
s= Deslizar
Aviso: Este fichero es trabajo propio de su transcriptor y representa su interpretación personal de la canción. El material contenido en esta página es para exclusivo uso privado, por lo que se prohibe su reproducción o retransmisión, así como su uso para fines comerciales.
Más versiones de Fuerza, Locura Y Libertad, Las Pastillas Del Abuelo
Fuerza, Locura Y Libertad
acordes
Fuerza, Locura Y Libertad
tablatura
Fuerza, Locura Y Libertad (ver 2)
tablatura
Fuerza, Locura Y Libertad (ver 3)
tablatura
Descubre más canciones de Las Pastillas Del Abuelo

Comentarios en Facebook: