El Enano, Las Pastillas Del Abuelo (tablatura) (ver 3)

Autor: Anónimo | 28162 visualizaciones

Bueno aca esta el solo de este temazo ..eso si Bastante Cuadrado,
ya que en algunas partes no es tan facil
sacarlo...ustedes denle los tiempos y el feeling.Y bueno...
algo es algo...



Solo:[3:10]

E----5--7-5------------------------|
B-3h5-5----6-5-2h3p2-----2/3-2-2---|
G-------------------4-2------------|
D----------------------4-----------|
A----------------------------------|
E----------------------------------|


E-------------------------------------|
B-2-2-2-3-2-3-------3-----------------|
G-------------4--2-4--4-2-2-2h4--2--2-|
D--------------------------4-------4--|
A-------------------------------------|
E-------------------------------------|


E------10-12-10-12-12b(14)-17--12b(14)-17-14-12------|
B-10h12----------------------------------------15-14-|
G----------------------------------------------------|
D----------------------------------------------------|
A----------------------------------------------------|
E----------------------------------------------------|

     *                      *
E------12-15-14-----------|-------------------|*Esta parte es muy rapida..
B----14-------------------|-------------10-12-|
G-14b-----------12-11-----|--------11-12------|
D--------------------12---|---10-12-----------|
A----------------------12-|-12----------------|
E-------------------------|-------------------|


E-10----------10-------7-t([10-7-5]x8)-|
B---12--10--12--12-10------------------|
G--------------------------------------|
D--------------------------------------|
A--------------------------------------|
E--------------------------------------|

        *
E-------10-9-7-------------------------|
B-8h10--------10-8-7-------------------|
G-------------------9-7-6--------------|
D-------------------------7-9----------|
A-----------------------------10-8-----|
E----------------------------------/10-|*Esta parte es muy rapida..


E-----10------12---------|---9-10-t([14-12-10]x8)-14b--17-14b------|
B-8-10--10-12b--12br-10--|-12--------------------------------15-15-|
G------------------------|-----------------------------------------|
D------------------------|-----------------------------------------|
A------------------------|-----------------------------------------|
E------------------------|-----------------------------------------|


E---t([17-12-10]x7)-17----t([17-12-9]x7)-17----t([14-10-7]x8)-14b-|
B-----------------------------------------------------------------|
G-----------------------------------------------------------------|
D-----------------------------------------------------------------|
A-----------------------------------------------------------------|
E-----------------------------------------------------------------|


E-----------------------|
B-17b(19)-15-14b-12-10v-|
G-----------------------|
D-----------------------|
A-----------------------|
E-----------------------|


Ej:12br = Bend Release = estirar medio tono y volver al 12.
t:tapping pueden usar esta tecnica para poder hacerlo con mas velocidad.

sergioceballes@hotmail.com
Aviso: Este fichero es trabajo propio de su transcriptor y representa su interpretación personal de la canción. El material contenido en esta página es para exclusivo uso privado, por lo que se prohibe su reproducción o retransmisión, así como su uso para fines comerciales.
Más versiones de El Enano, Las Pastillas Del Abuelo
El Enano
acordes
El Enano
tablatura
El Enano (ver 2)
tablatura
El Enano (ver 3)
tablatura
Descubre más canciones de Las Pastillas Del Abuelo

Comentarios en Facebook: