El Cowboy, Las Pastillas Del Abuelo (bajo)

Autor: Anónimo | 14114 visualizaciones

Creo q suena baastante bien :)

Intro (bateria y arranca)

G|------------------------------------------------------------------
D|---5--2------------------2--22-0-2-3--33----2-------5-5-5---------
A|-3---3-5---5--5----2-3-5---2---------3--3-3---3-2-0--5-5-----0-2--
E|---------3---3-3-5-----------------------------------------3------

La intro la hace dos veces.

Estrofa 1

G|--------------------------------------------------------------------
D|---5--2--------------7-5-----------------5--2----------------5-3-2--
A|-3---3-5---5--5----7----7---0-3---0-3--3---3-5---5--5-------------5-
E|---------3---3-3-5--------1-----1--------------3---3-3-55-11--------

G|-------------------------------------------------------------
D|---5--2--------------7-5-----------------5--2----------------
A|-3---3-5---5--5----7----7---0-3---0-3--3---3-5---5--5--------
E|---------3---3-3-5--------1-----1--------------3---3-3-55-11-

G|--------------
D|---0-3-2-0----
A|----------3-2-
E|-33-----------

Estrofa 2 (igual a la estrofa 1)

Estribillo

G|--------------------------------------------------------------------
D|---5--2--------------7-5-----------------5--2----------------5-3-2--
A|-3---3-5---5--5----7----7---0-3---0-3--3---3-5---5--5-------------5-
E|---------3---3-3-5--------1-----1--------------3---3-3-55-11--------

G|--------------------------------------------------------------------
D|---5--2--------------7-5-----------------5--2----------------5-3-2--
A|-3---3-5---5--5----7----7---0-3---0-3--3---3-5---5--5-------------5-
E|---------3---3-3-5--------1-----1--------------3---3-3-55-11--------

Intro

Estrofa 3

G|--------------------------------------------------------------------
D|---5--2--------------7-5-----------------5--2----------------5-3-2--
A|-3---3-5---5--5----7----7---0-3---0-3--3---3-5---5--5-------------5-
E|---------3---3-3-5--------1-----1--------------3---3-3-55-11--------

G|---------------------------------------------------------------
D|---5--2--------------7-5-----------------5--2------------------
A|-3---3-5---5--5----7----7---0-3---0-3--3---3-5---5--5----------
E|---------3---3-3-5--------1-----1--------------3---3-3-55-11-3-

Estrofa 4

G|---------------------------------------------------------
D|----------2-5---2-5------------------2-----2-------------
A|---0-2--3-----3-------2-5---2-5--0-3---0-3-----0-3---0-3-
E|-3------------------3-----3------------------1-----1-----

G|-------------------------------------------
D|---2-5---2-5-------------------------3-2---
A|-3-----3-------2-5---2-5---------2-5-----5-
E|-------------3-----3------5-1--3-----------

G|--------------------------------------------------
D|---2-5---2-5------------------2-----2-------------
A|-3-----3-------2-5---2-5--0-3---0-3-----0-3---0-3-
E|-------------3-----3------------------1-----1-----

G|--------------------------------------------
D|---2-5---2-5--------------------------------
A|-3-----3-------2-5---2-5--------------------
E|-------------3-----3------5--1--3-----------

Estribillo

G|--------------------------------------------------------------------
D|---5--2--------------7-5-----------------5--2----------------5-3-2--
A|-3---3-5---5--5----7----7---0-3---0-3--3---3-5---5--5-------------5-
E|---------3---3-3-5--------1-----1--------------3---3-3-55-11--------

G|-------------------------------------------------------------
D|---5--2--------------7-5-----------------5--2----------------
A|-3---3-5---5--5----7----7---0-3---0-3--3---3-5---5--5--------
E|---------3---3-3-5--------1-----1--------------3---3-3-55-11-

G|--------------
D|---0-3-2-0----
A|----------3-2-
E|-33-----------

Intro




La 132 es una fiesta xD
Aviso: Este fichero es trabajo propio de su transcriptor y representa su interpretación personal de la canción. El material contenido en esta página es para exclusivo uso privado, por lo que se prohibe su reproducción o retransmisión, así como su uso para fines comerciales.

Comentarios en Facebook: