Cubano, Las Pastillas Del Abuelo (tablatura)

Autor: Anónimo | 26160 visualizaciones

Intro: C#m B A

e|-------7/9-7b-7-7/9-7b-7------9-11-11h12-11-7/9-7------------------|
B|----7h9--------9---------9-12---------------------10-9/10-9-7-7/9--|
G|-6-----------------------------------------------------------------|
D|-------------------------------------------------------------------|
A|-------------------------------------------------------------------|
E|-------------------------------------------------------------------|

e|-12-------------------------|
B|---14-----------------------|
G|-----11/13-11--------11/13--|
D|-------------14-11-14-------|
A|----------------------------|
E|----------------------------|


C#m       B        A
Ademas de que me abrase
C#m         B      A
le pedí que me quisiera.
C#m         B        F#m
Pero no era una cualquiera,
C#m          B         A
era una puta con clase.

C#m        B     A
Por cabeza no pedía
C#m                B      A
más ni menos de lo que valía.
C#m        B     F#m
Por cabeza nunca daba
C#m                B      A
más ni menos de lo que cobraba.

F#                  A
Pude lograr lo que nunca
E                 B
otro hombre pudo lograr:
F#          A
Demostrarle de verdad
E                      B
que habia tanta pasión junta
F#           A
dentro de mi corazón,
   E                    B
ahi en su cama desparramado.
F#          A
En media hora de infierno
E                      B
toqué el cielo con las manos.


C#m B A x4


C#m          B       A
Se notaba en el colchón
C#m       B                F#m
más sudor que en cualquier otro.
C#m           B     A
Y con caricias intentaba
C#m             B    A
sanar su corazón roto.

C#m                      B           A
Porque hace falta mucho más que el dinero
C#m             B    F#m
o propina de segunda
C#m              B           A
para tapar en el alma ese agujero,
C#m                  B   A
que de amargura se inunda.

F#                   A
Y ahora nuestra preciosa dama
E               B
ya no labura de cama.
F#                   A
Quiere ganar de otra forma la guita,
E                    B
la que antes era Afrodita.
F#            A           E                   B
Y yo sigo llamándola pero ya no se viene a dormir.
F#                     A            E                         B
Si no hay mal que por bien no venga, ¿Qué bien te trajo hasta mi?

En esta parte toca el piano, saxo, bateria y cuando esta terminando
de tocar el bajo interviene con la guitarra haciendo esto:

e|--------------------|
B|-----------2-0------|
G|---------------2-1--|
D|--------------------|
A|-4-2-0--------------|
E|------4-2-0---------|

F# A E B x2

F#            A           E                   B
Y yo sigo llamándola pero ya no se viene a dormir.
F#                     A            E                         B    C C#m
Si no hay mal que por bien no venga, ¿Qué bien te trajo hasta mi?
Aviso: Este fichero es trabajo propio de su transcriptor y representa su interpretación personal de la canción. El material contenido en esta página es para exclusivo uso privado, por lo que se prohibe su reproducción o retransmisión, así como su uso para fines comerciales.
Más versiones de Cubano, Las Pastillas Del Abuelo
Cubano
acordes
Cubano
tablatura
Descubre más canciones de Las Pastillas Del Abuelo

Comentarios en Facebook: