Ama A Quien Llora Por Tí, Las Pastillas Del Abuelo (tablatura)

Autor: Anónimo | 43267 visualizaciones

La guitarra se puede afinar medio tono más arriba,
en Fa, para que suene mejor


Introducción
                              D/D4/D  A/A5/A9  E   /E5/E

E|-------0------------0-----|-2-3--2--0----3---0-0-----0-0-x-|
B|----------------------0---|-3-3--3--2----2---0-0-----0-0-x-|
G|-0h1-----1----0h1-------1-|-2-2--2--2-2------1-1-----1-1-x-|
D|-----------2------2-------|-0-0--0--2-2------2-2--2--2-2-x-|
A|------------------2-------|---------0-0------2-2--2--2-2-x-|
E|-----0------------0-------|------------------0-0--0--0-0-x-|



E|----------0----------------0-----|
B|------------0----------------0---|
G|-0h1-1-------------0h1-1---------|
D|-------2-------2---------2-----2-|
A|-------2-------2---------2-----2-|
E|-------0-------0---------0-----0-|




E|-2-3--2--0----3---0-0-----0-0-x-|
B|-3-3--3--2----2---0-0-----0-0-x-|
G|-2-2--2--2-2------1-1-----1-1-x-|
D|-0-0--0--2-2------2-2--2--2-2-x-|
A|---------0-0------2-2--2--2-2-x-|
E|------------------0-0--0--0-0-x-|




        Suavemente desparramado en algún cordón

E|--------0-x-0-x-0-x-0-x------0-2-x-2-0-x--0----0------x-|
B|--------0-x-0-x-0-x-0-x------2-3-x-3-2-x--0------0----x-|
G|-0h1-1--1-x-1-x-1-x-1-x------2-2-x-2-2-x--1-----------x-|
D|--------2-x-2-x-2-x-2-x------2-0-x-0-2-x--2--2------2-x-|
A|--------2-x-2-x-2-x-2-x------0---x---0-x--2--2------2-x-|
E|--------0-x-0-x-0-x-0-x----------x-----x--0--0------0-x-|




        Con una quilmes al lado de mi corazón

E|--------0-x-0-x-0-x-0-0-x----0-2-x-2-0-x--0------0------x-|
B|--------0-x-0-x-0-x-0-0-x----2-3-x-3-2-x--0--------0----x-|
G|-0h1-1--1-x-1-x-1-x-1-1-x----2-2-x-2-2-x--1-------------x-|
D|--------2-x-2-x-2-x-2---x----2-0-x-0-2-x--2--2-2------2-x-|
A|--------2-x-2-x-2-x-2---x----0---x---0-x--2--2-2------2-x-|
E|--------0-x-0-x-0-x-0---x--------x-----x--0--0-0------0-x-|




Un par de poemas reprimidos que ya no sirven más

E|--------0-x-0-0-x-0-0-x----0-2-x-2-0-x--0----0-----x-|
B|--------0-x-0-0-x-0-0-x----2-3-x-3-2-x--0----0-----x-|
G|-0h1-1--1-x-1-1-x-1-1-x----2-2-x-2-2-x--1----1-----x-|
D|--------2-x-2-2-x-2-2-x----2-0-x-0-2-x--2--2---2-2-x-|
A|--------2-x-2-2-x-2-2-x----0---x---0-x--2--2---2-2-x-|
E|--------0-x-0-0-x-0-0-x--------x-----x--0--0---0-0-x-|




Que te aseguro nena él no te los va a dar

E|--------0-x-0-0-x-0-0-x-0-x--2-0-x--0-0-x--0----0-0-x-|
B|--------0-x-0-0-x-0-0-x-0-x--3-2-x--2-0-x--0----0-0-x-|
G|-0h1-1--1-x-1-1-x-1-1-x-1-x--2-2-x--2-1-x--1----1-1-x-|
D|--------2-x-2-2-x-2-2-x-2-x--0-2-x--2-2-x--2-2--2-2-x-|
A|--------2-x-2-2-x-2-2-x-2-x----0-x--0-2-x--2-2--2-2-x-|
E|--------0-x-0-0-x-0-0-x-0-x------x----0-x--0-0--0-0-x-|




Y yo ahora se que no,

no te importo nada

E|-0-2-x--2-0-x--0----0-0-x--
B|-2-3-x--3-2-x--0----0-0-x--
G|-2-2-x--2-2-x--1----1-1-x--
D|-2-0-x--0-2-x--2-2--2-2-x--
A|-0---x----0-x--2-2--2-2-x--
E|-----x------x--0-0--0-0-x--



Pero algún día caerás a mí

E|-0-2-x--2-0-x--0----0-0-x--
B|-2-3-x--3-2-x--0----0-0-x--
G|-2-2-x--2-2-x--1----1-1-x--
D|-2-0-x--0-2-x--2-2--2-2-x--
A|-0---x----0-x--2-2--2-2-x--
E|-----x------x--0-0--0-0-x--



Por eso, no llores por quién no te ama

E|-0-2-x--2-0-x--0----0-0-x--
B|-2-3-x--3-2-x--0----0-0-x--
G|-2-2-x--2-2-x--1----1-1-x--
D|-2-0-x--0-2-x--2-2--2-2-x--
A|-0---x----0-x--2-2--2-2-x--
E|-----x------x--0-0--0-0-x--






Ama a quién llora por ti

E|-3-x-3-3-x--2-x-0-0-x--
B|-0-x-0-0-x--3-x-2-2-x--
G|-0-x-0-0-x--2-x-2-2-x--
D|-0-x-0-0-x--0-x-2-2-x--
A|-2-x-2-2-x----x-0-0-x--
E|-3-x-3-3-x----x-----x--

--------------------------------------
--------------------------------------

E|-------0-0-x-----------0-0-x--
B|-------0-0-x-----------0-0-x--
G|-0h1---1-1-x---0h1-1---1-1-x--
D|-----2-2-2-x---------2-2-2-x--
A|-----0-2-2-x---------0-2-2-x--
E|-----0-0-0-x---------0-0-0-x--



E|-2--2-3-2--0----3---0-0-----0-0-x-|
B|-3--3-3-3--2----2---0-0-----0-0-x-|
G|-2--2-2-2--2-2--2---1-1-----1-1-x-|
D|-0--0-0-0--2-2--2---2-2--2--2-2-x-|
A|-----------0-0--0---2-2--2--2-2-x-|
E|--------------------0-0--0--0-0-x-|



E|---------0-0-x-----------0-0-x--
B|---------0-0-x-----------0-0-x--
G|-0h1-1---1-1-x---0h1-1---1-1-x--
D|-------2-2-2-x---------2-2-2-x--
A|-------0-2-2-x---------0-2-2-x--
E|-------0-0-0-x---------0-0-0-x--



E|-2--2-3-2--0----3---0-0-----0-0-x-|
B|-3--3-3-3--2----2---0-0-----0-0-x-|
G|-2--2-2-2--2-2--2---1-1-----1-1-x-|
D|-0--0-0-0--2-2--2---2-2--2--2-2-x-|
A|-----------0-0--0---2-2--2--2-2-x-|
E|--------------------0-0--0--0-0-x-|


--------------------------------------
--------------------------------------


En el interior de un bar también me podrás encontrar

E|--------0-x-0-0-x-0-0-x-0-x--0-2-x--2-0-x--0----0-0-x-|
B|--------0-x-0-0-x-0-0-x-0-x--2-3-x--3-2-x--0----0-0-x-|
G|-0h1-1--1-x-1-1-x-1-1-x-1-x--2-2-x--2-2-x--1----1-1-x-|
D|--------2-x-2-2-x-2-2-x-2-x--2-0-x--0-2-x--2-2--2-2-x-|
A|--------2-x-2-2-x-2-2-x-2-x--0---x----0-x--2-2--2-2-x-|
E|--------0-x-0-0-x-0-0-x-0-x------x------x--0-0--0-0-x-|



Ahogando penas en un vaso, tratando de olvidar

E|--------0-x-0-0-x-0-0-x-0-x--0-2-x--2-0-x--0----0-0-x-|
B|--------0-x-0-0-x-0-0-x-0-x--2-3-x--3-2-x--0----0-0-x-|
G|-0h1-1--1-x-1-1-x-1-1-x-1-x--2-2-x--2-2-x--1----1-1-x-|
D|--------2-x-2-2-x-2-2-x-2-x--2-0-x--0-2-x--2-2--2-2-x-|
A|--------2-x-2-2-x-2-2-x-2-x--0---x----0-x--2-2--2-2-x-|
E|--------0-x-0-0-x-0-0-x-0-x------x------x--0-0--0-0-x-|



Que le brindaste tus ojos, y el te hizo una herida profunda, nena

E|--------0-x-0-x-0-x-0-x---0-2-x--2-0-x--0----0-0-x-|
B|--------0-x-0-x-0-x-0-x---2-3-x--3-2-x--0----0-0-x-|
G|-0h1-1--1-x-1-x-1-x-1-x---2-2-x--2-2-x--1----1-1-x-|
D|--------2-x-2-x-2-x-2-x---2-0-x--0-2-x--2-2--2-2-x-|
A|--------2-x-2-x-2-x-2-x---0---x----0-x--2-2--2-2-x-|
E|--------0-x-0-x-0-x-0-x-------x------x--0-0--0-0-x-|


Que mi guitarra no suena, está triste y siempre adentro de su funda

E|--------0-x-0-0-x-0-x-0-x---0-2-x--2-0-x--0-x--0-0-x-|
B|--------0-x-0-0-x-0-x-0-x---2-3-x--3-2-x--0-x--0-0-x-|
G|-0h1-1--1-x-1-1-x-1-x-1-x---2-2-x--2-2-x--1-x--1-1-x-|
D|--------2-x-2-2-x-2-x-2-x---2-0-x--0-2-x--2-x--2-2-x-|
A|--------2-x-2-2-x-2-x-2-x---0---x----0-x--2-x--2-2-x-|
E|--------0-x-0-0-x-0-x-0-x-------x------x--0-x--0-0-x-|


Y no la toco porque

No te importo nada

E|-0-2-x--2-0-x--0-x--0-0-x--
B|-2-3-x--3-2-x--0-x--0-0-x--
G|-2-2-x--2-2-x--1-x--1-1-x--
D|-2-0-x--0-2-x--2-x--2-2-x--
A|-0---x----0-x--2-x--2-2-x--
E|-----x------x--0-x--0-0-x--



Pero algún día caerás a mí

E|-0-2-x---2-0-x---0-x--0-x--
B|-2-3-x---3-2-x---0-x--0-x--
G|-2-2-x---2-2-x---1-x--1-x--
D|-2-0-x---0-2-x---2-x--2-x--
A|-0---x-----0-x---2-x--2-x--
E|-----x-------x---0-x--0-x--






Por eso, no llores a quién no te ama

E|-0-2-x--2-0-x--0-x--0-0-x--
B|-2-3-x--3-2-x--0-x--0-0-x--
G|-2-2-x--2-2-x--1-x--1-1-x--
D|-2-0-x--0-2-x--2-x--2-2-x--
A|-0---x----0-x--2-x--2-2-x--
E|-----x------x--0-x--0-0-x--


Ama a quién llora por ti

E|-3------2---(0-0-x)--------0-0-x-----0-0-x--0-0-x--
B|-0------3---(0-0-x)--------0-0-x-----0-0-x--0-0-x--
G|-0------2---(1-1-x)--0h1---1-1-x---0h1-1-x--1-1-x--
D|-0------0---(2-2-x)------2-2-2-x-----2-2-x--2-2-x--
A|-2----------(2-2-x)------0-2-2-x-----2-2-x--2-2-x--
E|-3----------(0-0-x)------0-0-0-x-----0-0-x--0-0-x--




Ama, ama a quien llora por ti

E|-(3)-3-x--3-3-x--3-2-x--2-2-x--
B|-(0)-0-x--0-0-x--0-3-x--3-3-x--
G|-(0)-0-x--0-0-x--0-2-x--2-2-x--
D|-(0)-0-x--0-0-x--0-0-x--0-0-x--
A|-(2)-2-x--2-2-x--2---x------x--
E|-(3)-3-x--3-3-x--3---x------x--


E|--0-0-x--0-0-x--------0-0-x--
B|--0-0-x--0-0-x--------0-0-x--
G|--1-1-x--1-1-x---0h1--1-1-x--
D|--2-2-x--2-2-x------2-2-2-x--
A|--2-2-x--2-2-x------0-2-2-x--
E|--0-0-x--0-0-x------0-0-0-x--



  Ama a quien llora por tí

E|-3---3-2--
B|-0---0-3--
G|-0---0-2--
D|-0---0-0--
A|-2---2----
E|-3---3----


--------------------------------------
--------------------------------------


E|-------0-0-x-----------0-0-x--
B|-------0-0-x-----------0-0-x--
G|-0h1---1-1-x---0h1-1---1-1-x--
D|-----2-2-2-x---------2-2-2-x--
A|-----0-2-2-x---------0-2-2-x--
E|-----0-0-0-x---------0-0-0-x--



E|-2--2-3-2--0----3---0-0-----0-0-x-|
B|-3--3-3-3--2----2---0-0-----0-0-x-|
G|-2--2-2-2--2-2--2---1-1-----1-1-x-|
D|-0--0-0-0--2-2--2---2-2--2--2-2-x-|
A|-----------0-0--0---2-2--2--2-2-x-|
E|--------------------0-0--0--0-0-x-|


E|-------0-0-x-----------0-0-x--
B|-------0-0-x-----------0-0-x--
G|-0h1---1-1-x---0h1-1---1-1-x--
D|-----2-2-2-x---------2-2-2-x--
A|-----0-2-2-x---------0-2-2-x--
E|-----0-0-0-x---------0-0-0-x--


E|-2-3-2h3p2-3-3/5-3-2---------------2-3/5-3-5-3h5p3p0-------
B|-3-------------------3------3----3-------------------3h5p3-
G|-2---------------------2----2--2---------------------------
D|-0-----------------------0--0------------------------------
A|-----------------------------------------------------------
E|-----------------------------------------------------------




E|--3------0--|
B|----5-3--0--|
G|---------1--|
D|---------2--|
A|---------2--|
E|---------0--|


----------------------------------------------
----------------------------------------------

/     = deslizar LA cuerda
h y p = ligados (h es pisar la cuerda y p es soltarla)
()    = notas que pueden no ser tocadas
x     = apagar con la mano cerrada


Notas:

E (Mi mayor): 001220                El primer número es la primera
E5 (Mi con 5ta): xxx220             cuerda e indica en que espacio
A (La mayor): 02220x                pisar. Y así con los demás.
A9(La mayor con 9na): 32220x        Las x son las cuerdas que no se
A5(La con 5ta): xx220x                                        tocan
D (Re mayor): 2320xx
D4 (Re mayor con 4ta suspendida): 3320xx
G (Sol mayor): 300023

Muchas Gracias por elegir este tab. Calificalo
                                                        Rafa
Aviso: Este fichero es trabajo propio de su transcriptor y representa su interpretación personal de la canción. El material contenido en esta página es para exclusivo uso privado, por lo que se prohibe su reproducción o retransmisión, así como su uso para fines comerciales.
Más versiones de Ama A Quien Llora Por Tí, Las Pastillas Del Abuelo
Ama A Quien Llora Por Ti
acordes
Ama A Quien Llora Por Ti (ver 2)
acordes
Ama A Quien Llora Por Ti (ver 3)
acordes
Ama A Quien Llora Por Tí
tablatura
Ama A Quien Llora Por Tí (ver 2)
tablatura
Descubre más canciones de Las Pastillas Del Abuelo

Comentarios en Facebook: