Almafuerte, Las Pastillas Del Abuelo (acordes)

Autor: Anónimo | 20396 visualizaciones

amcc5ff5gg5
 Saxo Intro: C-F-C-G

E----0--3-3h5-3--1--0-----------0-3-3h5-3--1--0--3-|
B-1-------------------1--3-3-1---------------------|
G--------------------------------------------------|


C                           F
Yo sé que fieros y hambrientos
C                    G
dos ojos en ti clavados
C                       F
siguiendo van tus cuidados
C                   G
miradas y movimientos.

C                     F
Por más que sigan atentos
C                   G
los giros de tu pasión
C                     F
podrá ser que la ocasión
C                    G
sin aprovechar se quede.

G
Pues vigilarte no pueden
Am                  C-C-G-Am-C
las telas del corazón.
G                         Am
Pues vigilarte no pueden...
  G5                 C
las telas del corazón.

Saxo Intro


C                             F
Yo sé que el labio de un hombre
C                      G
por tu amor capaz de todo
C                    F
recoge a montones lodo
C                        G
para volcarlo en mi nombre.

C                         F
Me callo sin que me asombre
C                   G
la bajeza de su acción
C                  F
de su vil difamación
C                       G
si queda rastro, que quede.

G
Yo sé que manchar no puede
Am                    C-C-G-Am-C
mi nombre en tu corazón.
G                           Am
Yo sé que manchar no puede....
     G5              C
mi nombre en tu corazón.

SOLO 1 [2:30]

BASE: C-F-C-G-C-F-C-G-G-Am--C-C-G-Am-C--G-Am-G5 .La base es

la misma que toda la cancion.

E---------------------|---------------|
B---------------------|---------------|
G-----5---7b-7-5-7--5-|---------5-7-5-|
D-5-7-----------------|-----5-7-------|
A---------------------|-5-7-----------|
E---------------------|---------------|

E----------|--7-8-7---------------8--10b[12]-------10-8--8-7-8--------|
B-8br-6-8*-|-------8-5-6-5--5h6p5------------10----------------8/10-8-|
G----------|------------------------------------12--------------------|
D----------|----------------------------------------------------------|
A----------|----------------------------------------------------------|
E----------|----------------------------------------------------------|

E--------------------------|-------------------15*-|
B--------------------------|---------------6-------|
G-7-7p5--5--7p5--5--7p5--5-|-----------5-7---------|
D------7-------7-------7---|-------5-7-------------|
A--------------------------|---5-7-----------------|
E--------------------------|-8---------------------|

E-10-12b-10p8-10*-5-|-------5-------8-7-5-------5*-|
B--------------------|-----5---8---5-------8-5-8----|
G--------------------|-5-7-------7------------------|
D--------------------|------------------------------|
A--------------------|------------------------------|
E--------------------|------------------------------|

E-------15-h17-15-h17-17b[18][17][19]-17-15-12br[14]-10-8-10-7*-|
B---------------------------------------------------------------|
G-12-12---------------------------------------------------------|
D---------------------------------------------------------------|
A---------------------------------------------------------------|
E---------------------------------------------------------------|

E--------15*-8--|--------15--------------------------|
B-12-h13---------|-15b[17]---15br[17]-13-15b[16][17]*-|
G----------------|------------------------------------|
D----------------|------------------------------------|
A----------------|------------------------------------|
E----------------|------------------------------------|

Saxo Intro


C5                        F5
De ojos, mano y labio impío,
C5                 G5
apostados en acecho
C5                   F5
para robarte del pecho
C5                G5
tu corazón todo mío.

C                 F
Lucharán en el vacío
C                   G
sin lograr su pretensión
C                  F
hasta que de mi pasión
C                    G
liberada por Dios quedes

G
Porque ni tú misma puedes
Am                  C-C-G-Am-C
mandar en tu corazón.
G                          Am
Porque ni tú misma puedes....
     G5              C
mandar en tu corazón.

Saxo Intro

SOLO 2 [4:39]

E--------15*-8---10-10-10b[12]-10p8-10*-|-------5-------8-7-5-------5*-|
B-12-h13---------------------------------|-----5---8---5-------8-5-8----|
D----------------------------------------|-5-7-------7------------------|
A----------------------------------------|------------------------------|
E----------------------------------------|------------------------------|

E-15-h17-15-h17-17b[18][17][19]-17-15-12br[14]-10-8-10-7*-|
B---------------------------------------------------------|
G---------------------------------------------------------|
D---------------------------------------------------------|
A---------------------------------------------------------|
E---------------------------------------------------------|

E--------15*---|---------------------------15*-|
B-12-h13-------|-12-13-15-15b[17]*--15b[17]----|
G--------------|-------------------------------|
D--------------|-------------------------------|
A--------------|-------------------------------|
E--------------|-------------------------------|


Notacion:

|*| = dejar sonar

|h = hammer on|

|p = pull off|

|b = Bend| Ej:15b[17] estirar la cuerda un tono, osea, hasta
que suene como 17.
17b[18][17][19] estirar la cuerda medio tono, osea, 18
y volver a 17 y subir un tono osea 19.

|br = Bend Release| EJ: 12br[14]estirar la cuerda un tono osea 14
y volver a 12.




La Cuerda 
Aviso: Este fichero es trabajo propio de su transcriptor y representa su interpretación personal de la canción. El material contenido en esta página es para exclusivo uso privado, por lo que se prohibe su reproducción o retransmisión, así como su uso para fines comerciales.
Más versiones de Almafuerte, Las Pastillas Del Abuelo
Almafuerte
acordes
Almafuerte
tablatura
Almafuerte
bajo
Almafuerte
armonica
Almafuerte (ver 2)
armonica
Descubre más canciones de Las Pastillas Del Abuelo

Comentarios en Facebook: