Verano Del 57, La Zimbabwe (tablatura)

Autor: Anónimo | 33881 visualizaciones



Este es el solo cuidadosamente hecho.
 Hize este tab de manera simple ya que solo tiene slides
(deslizamientos).
Los que toquen bien se daran cuenta solitos donde
hacer algun que otro bend(estiramiento) ;)



E |---------------------------------------------------------------|
B |-------------------------------------------------------8-10/12-|
G |-----------------------------------------------------7---------|
D |---------------------------------------------0-5-7/9-----------|
A |----3-5-5/6--6/5--3-5------3-5-5/6--6/5--3-2-------------------|
E |--3----------------------3-------------------------------------|
   Cm                  G Cm                   G



E |---10------------------8-10-10/11~---11/10-8-------8-10-10/15--|
B |------12/10--8-------8--------------------------12-------------|
G |---------------8~----------------------------------------------|
D |---------------------------------------------------------------|
A |---------------------------------------------------------------|
E |---------------------------------------------------------------|
                 Cm                                G          Bm



E |-----------------------------------------------8----------12-12-10~--|
B |-15-13-12-13-15------------------------------------------------------|
G |-----------------14/15/14-12-----12-------7/9-----9-11/12------------|
D |-----------------------------14--------------------------------------|
A |---------------------------------------------------------------------|
E |---------------------------------------------------------------------|
             Em                     C                               D

E |-----------------------------15------|
B |-10/12-10-----------------------15---|
G |----------12-9-----------------------|
D |---------------12--------------------|
A |------------------12-14-12-----------|
E |-------------------------------------|

/ = deslizamiento
~ = vibrato





Calificar esta versión:
Aviso: Este fichero es trabajo propio de su transcriptor y representa su interpretación personal de la canción. El material contenido en esta página es para exclusivo uso privado, por lo que se prohibe su reproducción o retransmisión, así como su uso para fines comerciales.
Más versiones de Verano Del 57, La Zimbabwe
Verano Del 57
acordes
Verano Del 57 (ver 2)
acordes
Verano Del 57
tablatura
Descubre más canciones de La Zimbabwe