El Gavilan, La Vela Puerca (bajo)

Autor: Anónimo | 21895 visualizaciones



Esta es una muy rewena rola, y el bajeo no sta tan
dificil, namas hay ke fijarse ien en los tiempos.



Si el gavilan se comiera...


G--------------------------------
D----2-5----2-5----2-5----2-5------------
A--3------3------3------3------------
E--------------------------------

G--------------------------------
D--------------------------------
A----0-3----0-3----0-3----0-3------------
E--1------1------1------1------------


G--------------------------------
D----2-5----2-5----2-5----2-5-2-3----------
A--3------3------3------3------------
E--------------------------------


Yo ya me hubiera comido al gvilan colorado..


E--------------------5------------


Gavilan piu piu piu ....
G--------------------------------
D----4-7----4-7----------------------
A--5------5--------4-7----4--7---------
E----------------5------5----------


G-----------------------------------------
D----4-7----4-7--------------------4-7--------
A--5------5--------4-7----4--7---5---------4-7-5--
E----------------5------5----------------5-----


Ya no era el...
G--------------------------------
D----2-5----2-5----2-5----2-5------------
A--3------3------3------3------------
E--------------------------------


G------------------------------------------
D-----------------------0-2-3-2------------
A----0-3----0-3-----0-3---------3-0---0-3--
E--1------1-------1-----------------1------


G--------------------------------
D----2-5----2-5----2-5----2-5-2-3----------
A--3------3------3------3------------
E--------------------------------


Que me viene persiguiendo el gavilan colorado..


E--------------------5------------


Gavilan piu piu piu...

G--------------------------------
D----4-7----4-7----------------------
A--5------5--------4-7----4--7---------
E----------------5------5----------


G-----------------------------------------
D----4-7----4-7--------------------4-7--------
A--5------5--------4-7----4--7---5---------4-7-5--
E----------------5------5----------------5-----


Sale macho viejo !!
G--------------------------------
D----2-5----2-5----2-5----2-5------------
A--3------3------3------3------------
E--------------------------------

G--------------------------------
D--------------------------------
A----0-3----0-3----0-3----0-3------------
E--1------1------1------1------------

G--------------------------------
D----2-5----2-5----2-5----2-5------------
A--3------3------3------3------------
E--------------------------------

G--------------------------------
D------------------3-3-2-2-0-0---------
A----0-3----0-3----------------3-3-----
E--1------1------------------------


G--------------------------------
D----2-5----2-5----2-5----2-5------------
A--3------3------3------3------------
E--------------------------------

G--------------------------------
D--------------------------------
A----0-3----0-3----0-3----0-3------------
E--1------1------1------1------------


G--------------------------------
D----2-5----2-5----2-5----2-5------------
A--3------3------3------3------------
E--------------------------------


G--------------------------------
D--------------------------------
A----0-3-----2-5-3--------------------
E--1-------3-----------------------


El aguila en la montaña..


G--------------------------------
D----2-5----2-5----2-5----2-5------------
A--3------3------3------3------------
E--------------------------------


G------------------------------------------
D--------------------------------------
A----0-3----0-3-----0-3-----0-3----------
E--1------1-------1-------1----------------


G--------------------------------
D----2-5----2-5----2-5----2-5-2-3----------
A--3------3------3------3------------
E--------------------------------


Y en los caminos del llano el gavilan colorado

E-----------------------5-------------------



G--------------------------------
D----4-7----4-7----------------------
A--5------5--------4-7----4--7---------
E----------------5------5----------


G-----------------------------------------
D----4-7----4-7--------------------4-7--------
A--5------5--------4-7----4--7---5---------4-7---
E----------------5------5----------------5-----

G----------------------------------------------
D----4-7------------------------------------------
A--5--------4-7-5-----5------------------------------
E---------5---------5-----------------------------


Bueno pwes esto s todo, el bajeo esta 100

Fuente original: LaCuerda
Colaborador original: marco antonio [[email protected]]





Calificar esta versión:
Aviso: Este fichero es trabajo propio de su transcriptor y representa su interpretación personal de la canción. El material contenido en esta página es para exclusivo uso privado, por lo que se prohibe su reproducción o retransmisión, así como su uso para fines comerciales.
Más versiones de El Gavilan, La Vela Puerca
El Gavilan
acordes
El Gavilan
bajo
Descubre más canciones de La Vela Puerca