Doble Filo, La Vela Puerca (tablatura)

Autor: Anónimo | 38082 visualizaciones



Intro
(VIOLA) Riff
e| -----------------------------------------
B| -----------------------------------------
G| -----------------------------------------
D| -7--7-5----------------------------------
A| --------8-7-8-7-5---5----------------5/7-
E| ------------------8---8-7-8-7-5--5/8-----

Estrofa (Am F Am F)x2

Puente (G G F F)

Estribillo ([Am G F F]x3 E Dm E7)x2

Intro (Sin riff)

Estrofa x2

Puente

Estribillo

Solo con Pentatonica de Am (Con Distor y Wah-Wah)

Puente

Estribillo

(VIENTOS) Final
e| -------------------------------------------------------
B| ----------------------8--------------------------------
G| -5/7-7/9-7-5--5/7-7/9---7-9-5--5/7-7/9-7-5-4-------5-4-
D| ---------------------------------------------7-7-7-----
A| --------------------------------------------------------
E| --------------------------------------------------------

e| --------------------------------------------------------
B| ----------------------8---------------------------------
G| -5/7-7/9-7-5--5/7-7/9---7-9-5--5/7-7/9-7-10-9-------5-4-
D| ----------------------------------------------7-7-7-----
A| --------------------------------------------------------
E| --------------------------------------------------------

-------------------------------------------------------------

(ESTROFA)
Arrancan solas cuando el Diablo está
paseandose por su vida, feliz;
Y no preguntan: '¿porque ahora son más?'
y el panorama es todo un porvenir
Para ella, ¡claro!, siempre hay más lugar
y nunca paran de reproducir
Embadurnadas, para liquidar
todo aquello que te haga reir.

(PUENTE)
Y en su trasero lleva todo el mal
y pocos ven lo bueno que hay en el;
De nada sirve entrar a conversar,
ella decide que hace con tu piel

(ESTRIBILLO)
¿Quien les va exigir, que no existan más?
si el negocio es claro y ya no tiene marcha atras
¿Donde esta miguel? ¿Quien se llevo a Juan?
Ellas no perdonan, si en sus ojos te cruzas

(ESTROFA)
Mano derecha de todo poder,
y tu destino puede controlar;
Ella seduce con su boca infiel
y su patada te puede extasiar
Pero...¡ciudado! porque no va a ser
nunca de tu dominio personal
De una escupida te podra hacer ver
que no precisa de tu bienestar

MUCHAS GRACIAS POR TODO YESPERO Q LES SIRVA...
POR FAVOR NO SE OLVIDEN DE VOTAR...
UN ABRAZO PARA TODOS... BUENA VIDA Y R'N'R'





Calificar esta versión:
Aviso: Este fichero es trabajo propio de su transcriptor y representa su interpretación personal de la canción. El material contenido en esta página es para exclusivo uso privado, por lo que se prohibe su reproducción o retransmisión, así como su uso para fines comerciales.
Más versiones de Doble Filo, La Vela Puerca
Doble Filo
acordes
Doble Filo
tablatura
Descubre más canciones de La Vela Puerca