Común Cangrejo, La Vela Puerca (bajo)

Autor: Anónimo | 28614 visualizaciones



Común Cangrejo (bajo)

Intro

G--------------------------------------------10---10--
D------------0-1-3----------------0-1-3---------------
A-1-0------1--------------------1----------8----8----8
E-----3-1----------1-1--3--1--3-----------------------


G-----------------------------------------------------
D----0-1-3------------------0-1-3---------------------
A--1---------------0-0----1--------1-0----------------
E-----------1-1--3---------------------3-1------------


TEMA

Como un latino envenenado.....

G------------------------------------10---10--
D----0-1-3----------------0-1-3---------------
A--1--------------------1----------8----8----8
E----------1--3--1--3-------------------------

G---------------------------------------------
D----0-1-3------------------0-1-3-------------
A--1---------------0-0----1--------3--3-3-----
E-----------1-1--3----------------------------

Estribillo

No te quemes si te dicen chicano.....

G------------------------------------------------
D------------------------------------------------
A-------------2-3-3--5-5---------------2-3-3--5-5
E---3--3-3--5---------------3--3-3--5------------


G------------------------------------------------
D---5-3-2-----------5-3-2------------------------
A---------2--3--5---------5----1-0---------------
E----------------------------------3-1-----------

Tema de nuevo......

G-------------------------------------10---10----
D----0-1-3------------------0-1-3----------------
A--1---------------0-0----1---------8----8----8--
E-----------1-1--3-------------------------------

etc.....


Espero que les sirva .....



7o7o





Calificar esta versión:
Aviso: Este fichero es trabajo propio de su transcriptor y representa su interpretación personal de la canción. El material contenido en esta página es para exclusivo uso privado, por lo que se prohibe su reproducción o retransmisión, así como su uso para fines comerciales.
Más versiones de Común Cangrejo, La Vela Puerca
Comun Cangrejo
acordes
Común Cangrejo
bajo
Descubre más canciones de La Vela Puerca