Clones, La Vela Puerca (tablatura) (ver 2)

Autor: lisidechapa | 43568 visualizaciones



E|-------------------------------------------
B|--------3-----2-------------------3-----2--
G|-----4-----2-------------------4-----2-----     X2
D|--------------------4?2--0-----------------
A|--2-------------------------2--------------
E|-------------------------------------------




                                         en esta parte se repite 
                                          esta arpegio 
  Un mundo ciego o no lo queres ver    e|---------------                                           
  Profeta enfermo                      b|-------3-----2--
  O sos complice de el                 g|----4-----2-----
  Castillo al suelo                    d|----------------
  La realidad otra vez se te va?       a|-2-------------- 
                                       e|----------------

           Bm                   A
Matan renglones los clones se hacen rey
           Bm                   A
Y en los cajones, se esconden y no ven
              Bm
Que no hay razones
          A                      Bm      A 
Que me maten de una vez y ahí están?

Sus oraciones, de confusión letal
Los pormenores, de su ambición actual
Llenan rincones
Conla versiones de un triste disfraz
De moral

G                   A
Cuando ese ego también es droga
G                A
Es tinta de la peor
G                  A
La hipocresía se vuelve moda
G                  F#
La del fiel consumidor, que drogás?
			
Construyen miedos o vos se los pagas
Solta el veneno o vos no queres dar 
Patéala en serio
Tu realidad te dejo sin pensar

Son oradores, de males que hacen ley 
Muchos borrones, los parches no se ven
Y ya son roles difíciles de creer y poder respetar.

Cuando ese ego también es droga
Es tinta de la peor
La hipocresía se vuelve moda
La del fiel consumidor, que drogas?

EN EL MOMENTO QUE DICE ?DROGÁS? EMPIESA EL SIGUIENTE PUNTEO:

E|-------------------------
B|--3?2--------3?2---------
G|-------4--2-------4--2---   Varias veces antes del sig. 
D|-------------------------
A|-------------------------
E|-------------------------


E|---------------------------------------------------------------
B|--3?2--------3?2-----------------------------------------------
G|-------4--2-------4?2--2---------------------------------------  
D|---------------------------------------------------------------
A|------------------------------4--5-------2--4--5--5--4--2--4--5
E|---------------------------5--------5--3-----------------------


E|--------------------------------------------------
B|--------------------------------------------------
G|--------------------------------------------------    
D|--------4-----------------------------------------      X3
A|--4--5-----4--5--4--------2--4--5--5--4--2--4--5--
E|--------------------5?3---------------------------


Y Cuando el ego también es droga
Es tinta de la peor
La hipocresía se vuelve moda
La del fiel consumidor?
  
  G                   A
Cuando ese ego también es droga
G                A
Es tinta de la peor
G                  A     
La hipocresía se vuelve moda
G                   F#          Bm    A
La del fiel consumidor, que drogás?
        Bm   A                Bm      A     G
Que drogas, consumidor que drogas
F#              Bm
Consumidor que drogas ? 





Bueno esto es todo?  Tengan paciencia que va a salir!!!
Calculo que esta perfecto? de ultima me avisan: [email protected]


AGUANTE LA VELA!!!!





Calificar esta versión:
Aviso: Este fichero es trabajo propio de su transcriptor y representa su interpretación personal de la canción. El material contenido en esta página es para exclusivo uso privado, por lo que se prohibe su reproducción o retransmisión, así como su uso para fines comerciales.
Más versiones de Clones, La Vela Puerca
Clones
acordes
Clones
tablatura
Clones (ver 2)
tablatura
Descubre más canciones de La Vela Puerca