Clarobscuro, La Vela Puerca (tablatura)

Autor: Anónimo | 46489 visualizaciones



La Vela Puerca
Claroscuro

“:Ligado (descendente y ascendente)
s: slide(arrastrar)

Intro x2 veces y terminar en LAm (guitarra 1)

1/------0--------0------------------
2/—0-“1------0-“1-------------------
3/--------2-------2—-0--------------
4/---------------------3--2—0-------
5/------------------------------3-“0
6/----------------------------------

Intro varias veces(guitarra 2)
Ligado ascendente (“)

1/-------0-0----0---0-------0-0----0---0
2/--0-“1------1---1----0-“1------1---1--
3/--------------------------------------
4/--------------------------------------
5/--------------------------------------
6/--------------------------------------

Punteo “:(ligados ascendentes)

1/----------------------------/----------------10------------
2/--7s9-7--7s9—7-5”7----------/--7s9—7—-5-7-7s9---9-7--------
3/-------------------7”9—5”7--/-----------------------5-7----
4/----------------------------/---------------------------5-7
5/----------------------------/------------------------------
6/----------------------------/------------------------------

1/----------------------------------------------------------
2/-------10-12-10---------11-S13-13-13---10-13-12—-10-13-12-
3/--9-11-------------9-11-----------------------------------
4/----------------------------------------------------------
5/----------------------------------------------------------
6/----------------------------------------------------------

1/------------------12-12-12-12-S13
2/-------11-S13-13-----------------
3/--9-11---------------------------
4/---------------------------------
5/---------------------------------
6/---------------------------------
Bueno...... el tema es fácil, revise los acordes de la otra 
transcripción y están bien solo faltaban estos punteos que saque, 
cualquier duda  chateen con migo o escriban a
[email protected]  y AGUANTE LA VELA!!!!
(SOY DE ARG)

Fuente original: LaCuerda
Colaborador original: Ariel Mancuzo [[email protected]]





Calificar esta versión:
Aviso: Este fichero es trabajo propio de su transcriptor y representa su interpretación personal de la canción. El material contenido en esta página es para exclusivo uso privado, por lo que se prohibe su reproducción o retransmisión, así como su uso para fines comerciales.
Más versiones de Clarobscuro, La Vela Puerca
Clarobscuro
acordes
Clarobscuro (ver 2)
acordes
Clarobscuro
tablatura
Clarobscuro
teclado
Clarobscuro (ver 2)
teclado
Descubre más canciones de La Vela Puerca