A Lo Verde, La Vela Puerca (tablatura)

Autor: Anónimo | 20560 visualizaciones



Bueno,
Estoy aprendiendo la guitarra todavia (y espan~ol tambien, ja) , entonces puede ser 
que me equivoque con algunos acordes o lo que sea.  Aqui esta la cancion entera, 
cualquier cosa mandame un email.
Raul

Primer Acorde de la Cancion:

E----------------------------
B---1------------------------
G---0------------------------
D---2------------------------
A---3------------------------
E----------------------------

Acordes:

C (Do):

E------------------------------
B---------1-----------1--------
G-------0---0-------0---0------
D-----2------2----2------2-----
A---3-----------3--------------
E------------------------------

G (Sol):

E------------------------------
B--------0-----------0---------
G------0---0-------0--0--------
D----0------0----0-----0-------
A--2-----------2---------------
E------------------------------

F (Fa):

E---------1----------1---------
B-------1--1-------1--1--------
G-----2-----1----2-----1-------
D---3----------3---------------
A------------------------------
E------------------------------

G/C Riff 1:

E--------------------------------------------------------
B--------1---------0---------------------1---------------
G------0--0------0--0------0-----0-----0-----------------
D----2-----2---0-----0---2-----0-----2-------------------
A--3---------2---------3-----2-----3---------------------
E--------------------------------------------------------

Riff 2:

E----------------------------
B----------------1-----------
G--------------0-------------
D------------2---------------
A----0-2---3-----------------
E--3-----3-------------------

Harmonica Melody c/ Guitarra:

E-0-1-0-------0---0-1---3-1-0-----------------------------
B-------3-1-3---3-------------1-1/5-3-5-3-1h3p1-0-1-0-1---
G---------------------------------------------------------
D---------------------------------------------------------
A---------------------------------------------------------
E---------------------------------------------------------

Riff 2 fin:

E-----------------------------
B-----------1-----------------
G-----------0-----------------
D-----------2-----------------
A----0-2----3-----------------
E--3-----3--------------------

LETRAS:
C                          G
Voy a contarle amigo que no puede soportar,
C                              F
Estar más de cuatro días con su gente sin fumar,
          C
Y que va a hacer si él es así,
              G                            C/G Riff 1
Si alguien lo juzga él ya se puede arrepentir.

Tiene un bonito cuelgue con su vida y los demás,
Pero sube la rabia cuando tiene que escuchar,
Que no es así, que debe ser,
Que hay otra forma de empezar a envejecer.

F                            C
Yo lo conozco hermano, tiene fuerza en su humildad,
F                            C
Pero es capaz de todo si le cortan su verdad,
F                            C                              
Seguro que la vida le enseño 
                          G                Riff 2
Que hay que poner para volar.



Despues de Riff 2, va la parte de Harmonica, con 
un fondo de C, G, C, F, C, G, C/G Riff 1, 
Despues Repite desde Yo lo conozco hermano... 
y termina con Riff 2 Fin.

Fuente original: LaCuerda
Colaborador original: Raul Chimelir [[email protected]]





Calificar esta versión:
Aviso: Este fichero es trabajo propio de su transcriptor y representa su interpretación personal de la canción. El material contenido en esta página es para exclusivo uso privado, por lo que se prohibe su reproducción o retransmisión, así como su uso para fines comerciales.
Más versiones de A Lo Verde, La Vela Puerca
A Lo Verde
acordes
A Lo Verde
tablatura
A Lo Verde
armonica
Descubre más canciones de La Vela Puerca