Luna De Marzo, La Trampa (tablatura) (ver 2)

Autor: santanaguitarhero998 | 16099 visualizaciones



INTRODUCCION LUNITA DE MARZO


  
E |-------------------|-------------------
B |-------------------|-------------------
G |-------------------|-------------------
D |-----4--0--2-----0-|-----4--0--2--4--5-
A |--2----------4-----|--2----------------
E |-------------------|-------------------
  /

  
E |-------------------|-------------------
B |-------------------|-------------------
G |-------------------|-------------------
D |-----4--0--2-----0-|-------------------
A |--2----------4-----|--2--0--------0--1-
E |-------------------|--------3--2-------
  /

  
E |-------------------|-------------------
B |-------------------|-------------------
G |-------------------|--------------2--4-
D |-----4--0--2-----0-|-----4--0--2-------
A |--2----------4-----|--2----------------
E |-------------------|-------------------
  /

 
E |-------------------|-------------------
B |-------------------|-------------------
G |-------------------|-------------------
D |-----4--0--2-----0-|-------------------
A |--2----------4-----|--2--0--------0--1-
E |-------------------|--------3--2-------
  /





Calificar esta versión:
Aviso: Este fichero es trabajo propio de su transcriptor y representa su interpretación personal de la canción. El material contenido en esta página es para exclusivo uso privado, por lo que se prohibe su reproducción o retransmisión, así como su uso para fines comerciales.
Más versiones de Luna De Marzo, La Trampa
Luna De Marzo
tablatura
Luna De Marzo (ver 2)
tablatura
Descubre más canciones de La Trampa