Sigues Dando Vueltas, La Rue Morgue (tablatura)

Autor: Anónimo | 24435 visualizaciones



Este es el solo de "Sigues Dando Vueltas" 
Empieza en los 3:48. EN GUITARRA ACUSTICA

                                                                  
E||------------------------------9-10-12----|
B||------------------------10-12------------|
G||----------------9-11-12------------------|
D||--------9-10-12--------------------------|
A||--10-12----------------------------------|
E||-----------------------------------------|
   ^Rápido, aumentando intensidad (volumen)^
                                                              
|--12h14-12---b8r7-5---|---5----5--|--9h10h9----------|
|----------------------|---5h7--5--|---------10-------|
|----------------------|-----------|------------9h7h6-|
|----------------------|-----------|------------------|
|----------------------|-----------|------------------|
|----------------------|-----------|------------------|

                        
|----12h14-12---b8r7-5|-----5----5--|--(5)--5----5----||
|---------------------|-----5h7--5--|--(5)--5h7--5----||
|---------------------|-------------|-----------------||
|---------------------|-------------|-----------------||
|---------------------|-------------|-----------------||
|---------------------|-------------|-----------------||


Sé que no está perfecto, pero es eso aproximadamente, 
lo pueden ocupar para tocarlo y sonará relativamente 
bien... Cualquier duda o corrección, escriban.
Y traten de sacar mas canciones de la Rue Morgue!





Calificar esta versión:
Aviso: Este fichero es trabajo propio de su transcriptor y representa su interpretación personal de la canción. El material contenido en esta página es para exclusivo uso privado, por lo que se prohibe su reproducción o retransmisión, así como su uso para fines comerciales.
Más versiones de Sigues Dando Vueltas, La Rue Morgue
Sigues Dando Vueltas
acordes
Sigues Dando Vueltas
tablatura
Descubre más canciones de La Rue Morgue