Como Te ExtraÑo, La Revolucion De Emiliano Zapata (tablatura)

Autor: rodrigo-rokero | 31498 visualizaciones



LA GUITARRA DE ACOMPAÑAMIENTO UTILIZA SIGUIENTES ACORDES: 
G (SOL MAYOR) Em (MI MENOR) C (DO MAYOR) Y D(RE MAYOR) EN ESE ORDEN

E---3----0----3---0-----------
A---5----2----3---0-----------
D---5----2----2---0-----------
G---4----0----0---2-----------
B---3----0----1---3-----------
E---3----0----0---2-----------
    G    Em   C   D

ESTE ES EL REQUINTO DE ENTRADA,(ENTRAN JUNTAS LA GUITARRA,
 EL BAJO Y REQUINTO, Y SE REPITE 1 VEZ MAS)

E-----------------------------------------------------------------
A-----------------------------------------------------------------
D-----------------------------------------------------------------
G-----------------------------------------------------------------
B--8----5/7---8-----5/7--8----8-8-8----12--10----13--12--10--8----
E--7----3/5---7-----3/5--7----7-7-7----10--8-----12--10--8---7----


G                 Em
DIA TRAS DIA LOS MESES SE VAN, 
C                   D
NO SE NI CUANDO NI COMO VENDRAS,
G               Em
DIA TRAS DIA UNA ESPERA SIN FIN 
      C                  D
Y AUN TENGO GUARDADO EL RECUERDO DE TI

 G      Em                 C        D
COMO TE EXTRAÑO, ME HACES FALTA MI AMOR
      G         Em          C          D
Y SI ESTO ES QUERERTE HOY RENUNCIO AL AMOR,
      C                 D
Y DE NUEVO, COMENZAR A VIVIR.

 G              Em
DIA TRAS DIA MI VIDA SE VA
   C                 D
Y JUNTO CON ELLA MI FUERZAS DE AMAR
 G               Em
DIA TRAS DIA LOS DIAS SE VAN
      C                  D
SE QUE YA NUNCA JAMAS VOLVERAN


G      Em                 C        D
COMO TE EXTRAÑO, ME HACES FALTA MI AMOR
      G         Em          C          D
Y SI ESTO ES QUERERTE HOY RENUNCIO AL AMOR,
      C                 D
Y DE NUEVO, COMENZAR A VIVIR.


ESTE ES EL INTERMEDIO (INICIA HACIENDO UN RASGUEO EN EL ACORDE
DE SOL)

E-----------------------------------------------------------------
A--------------10---10-13-10-9-10------10-------------------------
D--9---------9----------------------7-----7-9---------------------
G--7---7-9-7----------------------------------7-9-7-9-------------
B--8--------------------------------------------------8---10/12---
E--7---------------------------------------------------------------

E-----------------------------------------------------------------
A-----------------------------------------------------------------
D-----------------------------------------------------------------
G------------------------------------------------------------12---
B--------------------12--------------12---------12--15-13-12------
E----12--14-15-14-12-----12-10-12-10-----10--12-------------------


G                 Em
DIA TRAS DIA LOS MESES SE VAN, 
C                   D
NO SE NI CUANDO NI COMO VENDRAS,
G               Em
DIA TRAS DIA UNA ESPERA SIN FIN 
      C                  D
Y AUN TENGO GUARDADO EL RECUERDO DE TI

 G      Em                 C        D
COMO TE EXTRAÑO, ME HACES FALTA MI AMOR
      G         Em          C          D
Y SI ESTO ES QUERERTE HOY RENUNCIO AL AMOR,
      C                 D
Y DE NUEVO, COMENZAR A VIVIR.



Y FINALIZA EXACTAMENTE CON LAS NOTAS DE INICIO.

E-----------------------------------------------------------------
A-----------------------------------------------------------------
D-----------------------------------------------------------------
G-----------------------------------------------------------------
B--8----5/7---8-----5/7--8----8-8-8----12--10----13--12--10--8----
E--7----3/5---7-----3/5--7----7-7-7----10--8-----12--10--8---7----





Calificar esta versión:
Aviso: Este fichero es trabajo propio de su transcriptor y representa su interpretación personal de la canción. El material contenido en esta página es para exclusivo uso privado, por lo que se prohibe su reproducción o retransmisión, así como su uso para fines comerciales.
Más versiones de Como Te ExtraÑo, La Revolucion De Emiliano Zapata
Como Te Extraño
acordes
Como Te Extraño (ver 2)
acordes
Como Te ExtraÑo
tablatura
Descubre más canciones de La Revolucion De Emiliano Zapata