Bien Alto, La Renga (tablatura)

Autor: Anónimo | 35395 visualizaciones

Qué tal gente. Acá les dejo el solo, riffs y arreglos
de este temazo. Espero que les sirva, lo estaban pidiendo.
(Los acordes, fijense en la transcripción de acordes, que están
perfectos ahí)


Intro
[(Mi5)x3 Sol5 La5 La#5 La5 Sol5] x4

Tocarla de esta manera
e|-------------------------|
B|----------8-10-11-10-8---|
G|--999s---7--9-10--9-7----|
D|--999s-------------------|
A|--777s-------------------|
E|-------------------------|

                                   Riff1
Hasta cuánto de alta es esta altura
                                  Riff2
que siempre hay más y yo más quiero subir
                      Riff3
hasta dónde llegará esta pendiente
cuanto más arriba haya
más abajo habrá también

[(Mi5)x3 Sol5 La5 La#5 La5 Sol5] x2

                                      Riff1
¿Hasta dónde? si ya voy cruzando el cielo
                            Riff2
¿Hasta dónde? si nunca puedo alcanzar
                  Riff3
¿Hasta cuándo? que nunca se ve la cima
                             *3
El horizonte siempre siempre
es un peldaño más

[(Mi5)x3 Sol5 La5 La#5 La5 Sol5] x2

                           (*1)
Cada vez estoy más trepado
y el abismo bajo mis pies
siempre tiene más abajo
pero a dónde queda llegar
de este arriba sin final
           Riff4
este arriba cada vez más alto está

Solo de Guitarra
Base [(MI5)x3 SOL5 LA5 LA#5 LA5 SOL5]  x6

e|----------------------------------------------|
B|------------------12--12--12-15~-15~-15~-15~--|
G|--12-12-12--------14b-14b---------------------|
D|-----------14-14------------------------------|
A|----------------------------------------------|
E|----------------------------------------------|

e|-------------------------------------------------------------------|
B|--|12-|----------------------------12-------12-------12----12------|
G|--|14b|-x4-14brp12-14-12-----------12-------12-------12----12------|
D|--------------------------------14----14p12----12h14----14----14~--|
A|--------------------------12s14------------------------------------|
E|-------------------------------------------------------------------|

e|-----------------------------------------------|
B|--s15-15-15-15----s15-15-s15-15-15-15-15s17~---|
G|--s16-16-16----16-s16-16-s16-16-16-16----------|
D|-----------------------------------------------|
A|-----------------------------------------------|
E|-----------------------------------------------|

e|--17b-17b-17b-17b-17brp15-17-15--------|
B|--------------------------------17~s---|
G|---------------------------------------|
D|---------------------------------------|
A|---------------------------------------|
E|---------------------------------------|

Solo de armónica
Base en guitarra                  [*2]
(SOL MIm SOL  MIm SOL RE  DO SOL MIm  DO RE MIm)


Apunado de locura
va a dejarme esta altura
nunca tiene suficiente
se eleva siempre más y más
tanto vértigo es la vida
no hay más que hacer solo subirla
           Riff4
morir abajo como también arriba.

Final
[(Mi5)x3 Sol5 La5 La#5 La5 Sol5] x 4
MI5 x 3

Durante el 3er  [(MI5)x3 SOL5 LA5 LA#5 LA5 SOL5]  , hace esto
e|---------------------------------|
B|--12--12---12--12--12--12--12----|
G|--14b-14b--14b-14b-14b-14b-14b---|
D|---------------------------------|
A|---------------------------------|
E|---------------------------------|

Y durante el 4to  [(Mi5)x3 Sol5 La5 La#5 La5 Sol5]  , hace esto
e|----------------------------------------|
B|--15--15--15--15--15--------------------|
G|--14b-14b-14b-14b-14brp12-14-12---------|
D|--------------------------------14s-----|
A|----------------------------------------|
E|----------------------------------------|

______________________________________________________________

  Riff 1     Riff 2        Riff 3      Riff 4
e|----------|--------------|----------|------------|
B|----------|--------------|----------|------------|
G|----------|--------------|------0---|---------0--|
D|--2p0-----|--0h2p0---0---|--0h2-----|--0-0h2-----|
A|------2---|--------2-----|----------|------------|
E|----------|--------------|----------|------------|

  *1                     *2                                  *3
e|------3-----7--------|-------12------9---------10--------|------------|
B|------------8-8-8-8--|----------------------------10-----|------------|
G|--2s4---4s7---7-7-7--|--9s12-----7s9---9--9s11-------11--|---------0--|
D|---------------------|-----------------------------------|-2p0-0h2----|
A|---------------------|-----------------------------------|------------|
E|---------------------|-----------------------------------|------------|

Notación:
- h: hammer on o ligado ascendente.
- p: pull off o ligado descendente.
- b: bending, o estirar la cuerda.
- r: release o bajar la cuerda (que fue antes estirada).
- brp: bending + release + pull off.
- *: armónico.
- s: slide o deslizar.
- ~: vibrato.
Calificar esta versión:
Aviso: Este fichero es trabajo propio de su transcriptor y representa su interpretación personal de la canción. El material contenido en esta página es para exclusivo uso privado, por lo que se prohibe su reproducción o retransmisión, así como su uso para fines comerciales.
Más versiones de Bien Alto, La Renga
Bien Alto
acordes
Bien Alto
tablatura
Bien Alto
bajo
Bien Alto
armonica
Bien Alto (ver 2)
armonica
Bien Alto (ver 3)
armonica
Bien Alto (ver 4)
armonica
Descubre más canciones de La Renga