Almohada De Piedra, La Renga (bajo)

Autor: Anónimo | 38105 visualizaciones

Intro
G|----------------------|
D|----------------------|
A|-5--5--7--3-----------|
E|----------------------|

Riff1
G|--------------------|
D|--------------------|
A|--5*---5--7--3------|
E|--------------------|
*queda sonando

Riff2
G|--------------------|
D|---------2-2-3-4----|
A|-2-2-5-5------------|
E|--------------------|

Riff3
G|----------------------------------------|
D|----------------------------------------|
A|-55555555--77777777--88888888--55555555-|
E|----------------------------------------|

G|----------------------------------------|
D|----------------------------------------|
A|-55555555--77777777--88888888--99999999-|
E|----------------------------------------|

Intro x8

Riff1 x4

Intro x4

Riff1 x4

Riff2 x8

Riff3 x4

Intro x4

Riff1 x4

Riff2 x8

Riff3 x4

Riff2 x8

La guitarra sola

Y después va haciendo junto con la batería
G|--------------------|
D|--------------------|
A|--5-5----5-5--------|
E|--------------------|


Intro x4

Riff3 x4

Riff2 x4

Intro x4

Final
G|----------------------|
D|----------------------|
A|-55555555555*-------5-|
E|----------------------|

es facil espero q les sirva
nos vemos suerte
Calificar esta versión:
Aviso: Este fichero es trabajo propio de su transcriptor y representa su interpretación personal de la canción. El material contenido en esta página es para exclusivo uso privado, por lo que se prohibe su reproducción o retransmisión, así como su uso para fines comerciales.
Más versiones de Almohada De Piedra, La Renga
Almohada De Piedra
acordes
Almohada De Piedra (ver 2)
acordes
Almohada De Piedra
tablatura
Almohada De Piedra
bajo
Descubre más canciones de La Renga