Baby, La Portuaria (tablatura)

Autor: markote | 21682 visualizaciones

ACORDES:> Am C Dm Bb E D:57775 Am*:5557755 F7+:8A9A888

+************+
|  RESUMEN   |  (para imprimir y guardar)
+************+

Intro: A5 A/DO
Acordes estrofas y estribillo: Am C Dm Bb E
Estrofas

1)Baby, no se si podre       3)Baby, yo nunca sere
  aplacar tu corazon.          otro del que se que soy
  Late fuerte y late bien.     puedo llevarte a pasear
  Baby, no te da perdon        por la luna y por el sol

2)Yo no se si curare         4)Yo no se si curare
  tu penuria y tu dolor,       tu penuria y tu dolor,
  pero se que sienta bien      pero se que sienta bien
  esta noche de calor.         esta noche de calor.

               Estribillo:
               Baby, baby...
               vamos a hamacarnos baby
               bajo las estrellas
               que la vida es bella
               para ti y para mi.

Acordes solo acordeon: [Am D] X3 [Am C E D]
                       [Am D] X3 [Am C E E]
Final:
Am Am C D Baby Baby, [Vamos a Hamacarnos baby!] X3

Solo:
e|-8--------------|    |--------||-8--------------|    |------------|
B|--10------------|    |--------||--10------------|    |------------|
G|---9--9--7h9h7--|    |4/9-----||---9--9--7h9h7--|    |4/9---------|
D|----10----------| X3 |----10-9||----10----------| X3 |----10-9-6-7|
A|--------------9-|    |--------||--------------9-|    |------------|
E|----------------|    |--------||----------------|    |------------|

+**************+
|  DETALLADO   |
+**************+
..se escucha un Mi grave y arranca

Intro: sobre Am, 4 veces:
(es solo una sugerencia se puede tocar de varias formas)
e|----------------|
B|----------------|
G|2--2--2--2-22-2-|
D|2--2--2--2-22-2-|
A|0--0--0--0-0303-|
E|----------------|

Sobre el 4º compás arranca la voz: "Baby, no se si podre.."
Con esta formulita salen las estrofas y el estribillo:
                     ==================
                      1 compas de Am
                      1 compas de C
                      1 compas de Dm
                      1/2 compas de Bb
                      1/2 compas de E
                     ==================
Estrofas:

      Am                     *desplegar los acordes*
Baby, no se si podre
    C
aplacar tu corazon.
     Dm
Late fuerte y late bien.
      Bb           E
Baby, no te da perdon

Yo no se si curare
tu penuria y tu dolor,
pero se que sienta bien
esta noche de calor.

Estribillo:
Am                            *rasgar*
Baby, baby...
            C
vamos a hamacarnos baby
             Dm
bajo las estrellas
               Bb
que la vida es bella
     E         Am
para ti y para mi.
                  C
Baby, vamos a hamacarnos baby,
            Dm
bajo las estrellas
               Bb
que la vida es bella
     E         Am
para ti y para mi.

                      h: hammer (pisar sin pulsar)
Solo acordeon:        /: slide (arrastrar sin volver a pulsar)
==============        tr: trino
                      ~: mantener la nota.
...y para   mi
            Am       D    F7+   Am       D    F7+  Am
e|----8----|--------------8----|--------------8----|--...
B|-----10--|---------------10--|---------------10--|--...
G|-------9-|9---7h9h7--------9-|9---7h9h7--------9-|9-...
D|--------10------------------10------------------10--...
A|---------|---------9---------|---------9---------|--...
E|---------|-------------------|-------------------|--...

            Am       D          Am  C    E    F7+
e|...-8----|-------------------|--------------8----|--...
B|...--10--|-------------------|---------------10--|--...
G|...----9-|9---7h9h7---------4/9----------------9-|9-...
D|...-----10-------------------|----10---9--------10--...
A|...------|---------9---------|-------------------|--...
E|...------|-------------------|-------------------|--...

            Am       D    F7+   Am       D    F7+  Am
e|...-8----|--------------8----|--------------8----|--...
B|...--10--|---------------10--|---------------10--|--...
G|...----9-|9---7h9h7--------9-|9---7h9h7--------9-|9-...
D|...-----10------------------10------------------10--...
A|...------|---------9---------|---------9---------|--...
E|...------|-------------------|-------------------|--...

                                           Baby  yo nunca..
            Am       D          Am  C   E   E    Am
e|...-8----|-------------------|----------------|---...
B|...--10--|-------------------|----------------|---...
G|...----9-|9---7h9h7---------4/9---------------|---...
D|...-----10-------------------|----10--9---6---|7--...
A|...------|---------9---------|----------------|---...
E|...------|-------------------|----------------|---...

NOTA TEORICA: el acorde F7+ (Fa con septima mayor) tiene la forma
del A7+ (pero con  seguilla en el traste 8) y comparte notas
con el acorde de Am. No hay que tocarlo necesariamente.
Quedensen en el D si quieren.

Estrofas:

Baby, yo nunca sere
otro del que se que soy
puedo llevarte a pasear
por la luna y por el sol

Yo no se si curare
tu penuria y tu dolor
pero se que sienta bien
esta noche de calor.

Estribillo:

Baby, baby...
vamos a hamacarnos baby
bajo las estrellas
que la vida es bella
para ti y para mi.

Baby, vamos a hamacarnos baby,
bajo las estrellas
que la vida es bella
para ti y para ¡!

Final: Se pudre todo..
Am
BABY, BABY!!
            Am
Vamos a hamacarnos BABY!!
            C
Vamos a hamacarnos BABY!!
            D
Vamos a hamacarnos BABY!!

BABY, BABY!!
Vamos a hamacarnos BABY!!
Vamos a hamacarnos BABY!!
Vamos a hamacarnos BABY!! UHHHH!

BABY, BABY!!
Vamos a matarnos BABY!!     (no estoy seguro si dice matarnos)
Vamos a hamacarnos BABY!!
Vamos a matarnos BABY!!

Y sobre el ultimo "BABY" empieza de nuevo el solo con una
diferencia en el final:
    Am       D     Am  C   E   E    Am
e...|-------------|----------------|----------------|
B...|-------------|----------------|----------------|
G...|9---7h9h7---4/9---------------|----------------|
D...|-------------|----10--9---6---|7~~~~~~~~~/10/7~|
A...|---------9---|----------------|----------------|
E...|-------------|----------------|----------------|

  Am
e|----------------|----------------|----------------|------...
B|----------------|----------------|10~~~~~/13-12-10|tr10-12..
G|----------------|----------------|----------------|------...
D|~~~~~~~~~~/12/7~|~~~~~/14/7~~~~~~|----------------|------...
A|----------------|----------------|----------------|------...
E|----------------|----------------|----------------|------...




By_Mk3
Calificar esta versión:
Aviso: Este fichero es trabajo propio de su transcriptor y representa su interpretación personal de la canción. El material contenido en esta página es para exclusivo uso privado, por lo que se prohibe su reproducción o retransmisión, así como su uso para fines comerciales.
Más versiones de Baby, La Portuaria
Baby
acordes
Baby
tablatura
Descubre más canciones de La Portuaria