Envidia Cochina, La Polla Records (tablatura)

Autor: Anónimo | 42998 visualizaciones



estos son basicamente todos los punteos de esta cancion.
los acordes de la otra tablatura estan bien, pero para este tab
yo mismo saque el solo y le hice algunos cambios a los otros punteos.

---------------------------------------------------

Soy un hombre insatisfecho
y la envidia me corroe

---------------------------------------------------------

D------------------------------
A------------------------------
E-----------5-7-8-------------- X8
si la ley es para todos y todos somos igual
y si todos somos libres pa elegir ocupación


----------------------------------------------------------

quiero vivir sin currar y que lo pague el pais
y quiero veranear en el palacio real
seguir así no es para mí
condenar la corrupción
sin pagar contribución
quiero ejercer de gorrón
y vestido

---------------------------------------------------------


E |--------------------------------------------------------|
B |----------------------7---------------------------------|
G |-7--7--7--5-----5--7----------------------7 87878787----|
D |------------------------5--------5--7--8----------------|
A |--------------------------------------------------------|
E |--------------------------------------------------------|
    de general   ver desfilar       la juventud

E |-------------------------------------------------------|
B |---------------------7---------------------------------|
G |-7--7--7--5----5--7------------------------------------|
D |-----------------------5------5---7--8--7-87878787-----|
A |-------------------------------------------------------|
E |-------------------------------------------------------| y hablar
   a la nación   por navidad    vuelvo al hogar.

----------------------------------------------------------

QUiero besar a los niños
despreciando el terrorismo

----------------------------------------------------------

D------------------------------
A------------------------------
E-----------5-7-8-------------- X8

----------------------------------------------------------

quiero aprender a esquiar
sin písar un hospital
pedir a la
población más fe

----------------------------------------------------------

E |--------------------------------------------------------|
B |----------------------7---------------------------------|
G |-7--7--7--5-----5--7-----------------------7 87878787---|
D |------------------------5--------5--7--8----------------|
A |--------------------------------------------------------|
E |--------------------------------------------------------|
    en el pais     jodete tú,       yo vivo bien

E |--------------------------------------------------------|
B |----------------------7---------------------------------|
G |-7--7--7--5-----5--7------------------------------------|
D |------------------------5------5---7--8---7 87878787----|
A |--------------------------------------------------------|
E |--------------------------------------------------------| tapar
   la situación,  para el calor   gafas de sol.

-----------------------------------------------------------
SOLO

E--------------------------------------
B--5-6-7-------------------10-8-10-8---
G--------------------------------------

E--------------------------------------
B--5-6-7------8-10-8-7-----------------
G-----------------------8-7------------

E--------------------------------------
B--5-6-7-------------------10-8-10-8---
G--------------------------------------

E-------------------------------------------------
B--5-6-7------8-10-8-7-------5-6-7----------------
G-----------------------8-7----------7-10-7-7-5---

E------------------------------
B-----7------------------------
G-5-7------------7-87878787----
D-------5--5-7-8---------------
A------------------------------
E------------------------------

E--------------------------------------------
B---------------7----------------------------
G-7-10-7-7--5-7------------------------------
D-----------------5--5-7-8----7--87878787----
A--------------------------------------------
E--------------------------------------------

------------------------------------------------------

E |-------------------------------------------------------|
B |----------------------7--------------------------------|
G |----------5-----5-7----------------------7-87878787----|
D |------------------------5------5---7--8----------------|
A |-------------------------------------------------------|
E |-------------------------------------------------------|Tener
 lujo y placer,   aprovechar      mi sangre azul

E |-------------------------------------------------------|
B |----------------------7--------------------------------|
G |--7-7-7---5-----5-7------------------------------------|
D |------------------------5------5---7--8--7-87878787----|
A |-------------------------------------------------------|
E |-------------------------------------------------------|jugar
  a visitar a desgraciaos, en la miseria.

-------------------------------------------------------

Quiero vivir sin currar y que lo pague el
palacio real
Seguir así no es para mi
y quiero veranear en el
palacio real
¡Joder! Quiero ser rey.

------------------------------------------------------

D----------------------------------7--------------
A----------------------------------7--------------
E-----------5-7-8--5-7-8--10-------5--------------

Quiero ser ...................... rey!!!

------------------------------------------------------
---------------------- LISTO -------------------------
------------------------------------------------------


NOTA-
       LOS    -5-6-7-   EN EL SOLO  SON ¨TODOS¨ RAPIDOS, DEJANDO EL -5- APRETADO
                          Y ALTERNANDO VARIAS VECES Y RAPIDO CON EL  -6-7-



		-----------------------------------------------------
		-------------MADE IN MEDELLIN, COLOMBIA--------------
		-----------------------------------------------------


     ----------------SI TIENES DUDAS, CORRECCIONES O ALGO, AHISTA MI MAIL-----------------

                                      ¨sebastin rios¨

Fuente original: LaCuerda
Colaborador original: sebastian rios [[email protected]]





Calificar esta versión:
Aviso: Este fichero es trabajo propio de su transcriptor y representa su interpretación personal de la canción. El material contenido en esta página es para exclusivo uso privado, por lo que se prohibe su reproducción o retransmisión, así como su uso para fines comerciales.
Más versiones de Envidia Cochina, La Polla Records
Envidia Cochina
acordes
Envidia Cochina
tablatura
Envidia Cochina
bajo
Descubre más canciones de La Polla Records