Carne Para La Picadora, La Polla Records (tablatura) (ver 2)

Autor: Anónimo | 26473 visualizaciones

Este tab es basicamente lo mismo ke los anteriores
nomas ke este tiene el solo principal del tema entero.

Carne pa la pikadora !!!

INTRO: D5 F5 A#5 A5

D5             F5
Hace ya tiempo que se acabó
A#5                 A5 
el necio sueño de una vida feliz
D5              F5
nunca tendremos   un salvador
A#5               A5
que nos regale otra   oportunidad
D5            F5           
dame lo mejor   que tengo que olvidar
A#5                   A5
todas mis pellas y algún que otro marrón
D5           F5
sólo colocao   se calma este dolor
A#5                   A5     
que tanto agobia a mi   cuerpo terrenal
D5                    F5 (agudo X-8-10-10-x-x-x-)
Vida de superviviente  
D5                     F5 (agudo)
y meterse algo decente
D5                    F5 (agudo)
vida de superviviente
A#5                    A5
la rueda sigue y se acabó la juventud.

RIFF 1 ( x2 )
E |---------------------------------|
B |-5-6-5-6-5-6-5-6-5-6-5-6---------| 
G |---------------------------------| 
D |---------------------------------| 
A |---------------------------------|
E |---------------------------------|

E |-5-6-5-3-1-0-1-0-----------------|
B |---------------------------------| 
G |---------------------------------| 
D |---------------------------------| 
A |---------------------------------|
E |---------------------------------|

(aka sigue kon las mismas notas :D5-F5-A#5-A5)
Ahora me pongo con metadona
y cuando puedo de todo lo que hay
Eres muy libre si quieres confiar,
sólo un amigo te puede traicionar
La culpable de mi ruina es la sociedad
que cuando mejor setoy se acaba el material

D5-F5-A#5-A5 (EL D5 TOKARLO MAS TIEMPOS KE LOS DEMAS)
SOLO:

e:--------------------------------------------
B:--------------10--------------10-10-13-10---
G:--------10-12----12-10--10-10---------------
D:--12-12-------------------------------------
A:--------------------------------------------
E:--------------------------------------------

e:--------------------------------------------
B:----------------------10-13-13-10-13--------
G:--12b--12-12-12-10-12-----------------------
D:--------------------------------------------
A:--------------------------------------------
E:--------------------------------------------

e:--------------------------------------------
B:--------------10--------------10-10-13-10---
G:--------10-12----12-10--10-10---------------
D:--12-12-------------------------------------
A:--------------------------------------------
E:--------------------------------------------

e:--------------------------------------------
B:---------------------10-13-13-10-13/15b-----
G:--12b-12-12-12-10-12------------------------
D:--------------------------------------------
A:--------------------------------------------
E:--------------------------------------------

(SIGUE CON LAS MISMAS NOTAS:D5-F5-A#5-A5)
Carne pa la picadora, y qué más da
La culpable de mi ruina es la sociedad
que cuando mejor estoy se acaba el material

FINAL:D5

Fuente original: LaCuerda
Colaborador original: Maxi Bizin [bandasa_warrash@hotmail.com]
Calificar esta versión:
Aviso: Este fichero es trabajo propio de su transcriptor y representa su interpretación personal de la canción. El material contenido en esta página es para exclusivo uso privado, por lo que se prohibe su reproducción o retransmisión, así como su uso para fines comerciales.
Más versiones de Carne Para La Picadora, La Polla Records
Carne Para La Picadora
acordes
Carne Para La Picadora
tablatura
Carne Para La Picadora (ver 2)
tablatura
Descubre más canciones de La Polla Records