Cara Al Culo, La Polla Records (bajo)

Autor: Anónimo | 20077 visualizaciones

CARA AL CULO por LA POLLA

Yo diria k asi suena perfectamente pero si kereis
algo decidmelo pq me interesa saber mejores maneras
de tocarla. 

# Intro #
G---------------------------------------|
D---------------------------------------|
A------0--0-1-1-1-----------0--0-1------|
E-1--1------------3--3-1--1---------3-0-|

# Verso #
G--------X5----------|---|
D--------------------|---|
A-----------00003333-|---|
E--11111111----------|-1-|

# Riff majo #
G-------------------------------------------------------|
D-------------------------------------------------------|
A-0--------------0------1-1-0-----0----0----------------|
E---3-1-1-10-1-3---3-1-1------3-1---3-----3-1-1-1-0-1-3-|

G----------------|
D----------------|
A-0-------1------|
E---3-1-1---3-0-1|

# Puente #
G-----------------------------------------------|
D-----------------------------------------------|
A---------0-1--1-3--------------------0-1-------|
E-1--0-1------------0-1-1-1--0-1-1-1------3-0-1-|

# Verso #
G--------X4----------|-------------------|---|
D--------------------|-------------------|---|
A-----------00002222-|----------0000-----|---|
E--11111111----------|-11111111-----3333-|-1-|

Tablatura por Albert bajista de Txipets N Tranze
(www.txipets.tk)

Fuente original: LaCuerda
Colaborador original: albert donaire [hack6969@hotmail.com]
Calificar esta versión:
Aviso: Este fichero es trabajo propio de su transcriptor y representa su interpretación personal de la canción. El material contenido en esta página es para exclusivo uso privado, por lo que se prohibe su reproducción o retransmisión, así como su uso para fines comerciales.
Más versiones de Cara Al Culo, La Polla Records
Cara Al Culo
tablatura
Cara Al Culo
bajo
Descubre más canciones de La Polla Records