Canarios Y Jilgueros, La Polla Records (acordes)

Autor: Anónimo | 28030 visualizaciones

 Como la transcripción de esta canción estaba puesta en
acordes [y yo no tengo ni pajorera idea de sacar los 
acordes en quintas y hacerlos normales era muy jodido]
me he decidido a sacarla de oído. A mí me suena bien.
Para críticas, felicitaciones y amenazas de 
cortarme los testículos, escribid aquí [o agregadme]:

clockwork_sauron@hotmail.com

No seáis muy duros, es mi 1º canción sacada de oído y Mi 
primera transcripción xDDD

Dejo de enrrollarme, aquí la tenéis:



Intro 



-------------------------------------------|
-------------------------------------------|
-------------------------------------------|
-------------------------------6-----------|
---4-4-4-4-7-6-5-----4-4-4-4-7-4-7-5-4-----|
---2-2-2-2-5-4-3-----2-2-2-2-5---5-3-2-----|



-------------------------------------------|
-------------------------------------------|
-------------------------------------------|
-----------------------------7-6-----------|
---4-4-4-4-7-6-5-----4-4-4-4-5-4-7-5-4-----|
---2-2-2-2-5-4-3-----2-2-2-2-----5-3-2-----|




Letra [x4]



--------------------------------------------|
--------------------------------------------|
--------------------------------------------|
--------------------------------------------|
----4*----------------7-6-5-----------------|
----2*----------------5-4-3-----------------|



Parte semifinal


---------------------------------------------|
---------------------------------------------|
---------------------------------------------|
---------------------------------------------|
----7-6-7-6----5----7--6----5----7--6--------|
----5-4-5-4----3----5--4----3----5--4--------|



El orden a seguir es el siguiente:


Intro
Letra
Intro
Letra
Parte seminifinal
Intro


Para tocarlo correctamente se debe seguir el ritmo de la canción original.

* Tócalo las veces que creas necesario, según la canción original 

Fuente original: LaCuerda
Colaborador original: Sauron [clockwork_sauron@hotmail.com]
Calificar esta versión:
Aviso: Este fichero es trabajo propio de su transcriptor y representa su interpretación personal de la canción. El material contenido en esta página es para exclusivo uso privado, por lo que se prohibe su reproducción o retransmisión, así como su uso para fines comerciales.
Más versiones de Canarios Y Jilgueros, La Polla Records
Canarios Y Jilgueros
acordes
Canarios Y Jilgueros (ver 2)
acordes
Descubre más canciones de La Polla Records