Barby, La Polla Records (acordes)

Autor: Anónimo | 15911 visualizaciones

adefsos
 Barby 

Intro

   A     F#
e|-----------------------------| 
B|-----------------------------|  |
G|-----------------------------|  |
D|-6/7-7--6/7-4-4--------------|  > Riff
A|-----------------------------|  |
E|-----------------------------| _|
                               
  A-D-A-D Riff2 D|-------7--|
                A|-5-6-7----|

 A                  D Riff2
Ella era tan encantadora
 A                  D Riff2
Ellos quedaban a su puerta
 A                  D Riff2
Yo la veía desnudarse,
 A                  D Riff2
luego sonaba mi llamada
 E
y ella, sola con su miedo,
era toda para mí
 A      D      A    D
Barby, Barby, Barby...

Riff

 A                  D Riff2
Yo te esperé toda la tarde,
 A                  D Riff2
me llené de tus olores
 A                  D Riff2
Recuerdo tus ojos y tu lengua,
 A                  D Riff2
lleno de amor rompí tu carne,
 E
mojé mi cuchillo
y moje mi pantalón.

 A      D      A    D
Barby, Barby, Barby...

e|------------------------------------------| 
B|------------------------------------------|  
G|------------------------------------------|  
D|------------------------------------------|  
A|-----5--------------5-----------------12--|  
E|-5-7---5-5-3-2--5-7---5-7-9-10--9-10-9----|
                                 _________
                                    x 4
e|-----------------------------------| 
B|-----------------------------------|  
G|-----------------------------------|  
D|-6/7-7--6/7-4-4--6/7-7-7/9-7-6-7-4-|  
A|-----------------------------------|  
E|-----------------------------------|

 A                  D Riff2
Veo que un frío policía
 A                  D Riff2
dispara su flash y te ilumina
 A                  D Riff2
Tu cuerpo y tu cara en ese instante
 A                  D Riff2
están en mi pared en un recorte
 A                 D
junto a las otras,junto a las otras
 A                 D
junto a las otras,junto a las otras

 A      D      A    D
Barby, Barby, Barby...

e|-----------------------------| 
B|-----------------------------|  
G|-----------------------------|  
D|-6/7-7--6/7-4-4--------------| > x2 
A|-----------------------------|  
E|-----------------------------|

e|-----------------------------------| 
B|-----------------------------------|  
G|-----------------------------------|  
D|-6/7-7--6/7-4-4--6/7-7-7/9-7-6-7-4-|  
A|-----------------------------------|  
E|-----------------------------------|

e|------------------------------------------| 
B|------------------------------------------|  
G|------------------------------------------|  
D|-6/7-7/6/7-7/6/7-7/9-7-6-7-9-9/10-9-7-9-7-|  
A|------------------------------------------|  
E|------------------------------------------|

 

Fuente original: LaCuerda
Colaborador original: Pankcho [kkso_69@hotmail.com]
Calificar esta versión:
Aviso: Este fichero es trabajo propio de su transcriptor y representa su interpretación personal de la canción. El material contenido en esta página es para exclusivo uso privado, por lo que se prohibe su reproducción o retransmisión, así como su uso para fines comerciales.
Más versiones de Barby, La Polla Records
Barby
acordes
Barby (ver 2)
acordes
Descubre más canciones de La Polla Records