Metralla, La Pestilencia (tablatura)

Autor: David1998 | 16531 visualizaciones



Cancion: Metralla
Interprete: La Pestilencia
Album: Balistica
By: Sergio1998

|--------------|  
|--------------|
|--------------|   Intro
|--2---2---2---|
|--2---2---2---|
|--0---0---0---|

verso
|--------------------------------------------------------------------|
|--------------------------------------------------------------------| x8
|--------------------------------------------------------------------|
|----5/7?-7--8----5/7--7--8------5/7--7--8-----5/7--7--8-------------|
|----5/7--7--8----5/7--7--8------5/7--7--8-----5/7--7--8-------------|
|----3/5--5--6----3/5--5--6------3/5--5--6-----3/5--5--6-------------|

coro
|--------------------------------------------------------------------|
|-------7777---------------------------------------------------------| x4
|-------6666---------------------------------------------------------|
|---88888888---------44/544/544/54-----------------------------------|
|---88888888---------44/544/544/54-----------------------------------|
|---66666666---------22/322/322/32-----------------------------------|

solo
|--------------------------------------------------------------------|
|--------------------------------------------------------------------|
|---8-----8-----8-----8-----8-----8-----8-----6-----4-----4-----4---4|
|6-----5-----4-----3-----6-----5-----3-----0-----5-----4-----3-----2-|
|--------------------------------------------------------------------|
|--------------------------------------------------------------------|
 
outro
|--------------------------------------------------------------------|
|--------------------------------------------------------------------| x4
|--------------------------------------------------------------------|
|---2-45/7--2-5454----2-45/7----2-5454----2-45/7--2-5454-------------|
|---0-23/5--0-3232----0-23/5----0-3232----0-23/5--0-3232-------------|
|--------------------------------------------------------------------|

                                                        
final
|--------------------------------------------------------------------|
|--------------------------------------------------------------------| 
|--------------------------------------------------------------------|
|----5/7?-7--8----5/7--7--8------5/7--7--8-----5/7--7--8-----2-------|
|----5/7--7--8----5/7--7--8------5/7--7--8-----5/7--7--8-----2-------|
|----3/5--5--6----3/5--5--6------3/5--5--6-----3/5--5--6-----0-------|


Orden de la cancion

Intro
Verso x8
Coro  x4
Verso x8
Coro  x4
Solo
Outro x4
Coro  x4
Final





Calificar esta versión:
Aviso: Este fichero es trabajo propio de su transcriptor y representa su interpretación personal de la canción. El material contenido en esta página es para exclusivo uso privado, por lo que se prohibe su reproducción o retransmisión, así como su uso para fines comerciales.
Más versiones de Metralla, La Pestilencia
Metralla
tablatura
Metralla (ver 2)
tablatura
Descubre más canciones de La Pestilencia