De Pelicula (conejo), La Pestilencia (tablatura)

Autor: David1998 | 37381 visualizaciones



Cancion: De película (Conejo)
Interprete: La Pestilencia
Album: El Amarillista
By: Sergio1998

intro
|-----------------------------------------|
|-----------------------------------------| x6
|--11--10--------------11--10-------------|
|--11--10--8-----------11--10--8----------|
|--9---8---8-------6---9---8---8--------6-|
|----------6--68696-6----------6--6-8-9---|

Riff 1
|--------------------------------------------|
|--------------------------------------------| x2
|----------------3--------------111111/1010--|
|--------------3---3------------111111/1010--|
|------------3------------------9-9-9-/8-8---|
|--6-6-0-3-6---------6-6-0-3-6---------------|

|------------------------------------------------|
|------------------------------------------------| 
|--111111/1010--111111/1010?-111111/1010--11-10--|
|--111111/1010--111111/1010?-111111/1010--11-10--|
|--9-9-9-/8-8---9-9-9-/8-8---9-9-9-/8-8---9--8---|
|------------------------------------------------|

Riff 2

|-------8-9-8----------18h17-20h17-22h17----------|
|-11-11-------11-11-18--------------------20b-----|
|-------------------------------------------------|
|-------------------------------------------------|
|-------------------------------------------------|
|-------------------------------------------------|


|13141414131313--------------------12---|    |13141414131313/////19////////0|
|-------------11-1113-111411--11--------| x4 |------------------------------|                   
|---------------------------------------|    |------------------------------|                   
|---------------------------------------|    |------------------------------|                   
|---------------------------------------|    |------------------------------|                  
|---------------------------------------|    |------------------------------|
                   
Riff 3: ?En esta guerra cómplice Han pagado muchos inocentes??
|------------------------------------|
|----------------------------9-------| x4
|---11-10-8-10 8----11-10-10---10----|
|---11-10-8---------11-10-8----------|
|---9--8--6----------9--8------------|
|------------------------------------|

Riff 4: ?NOO NOO NOOO?
|--------------------------------------------------|
|--------------------------------------------------|
|--------------------------------------------------|
|---------8/98------8/98------8/98------8/98-------|
|---------8/98------8/98------8/98------8/98-------|
|----0000-6/76-0000-6/76-0000-6/76-0000-6/76-------|

Orden de la cancion
Intro x6
Riff 1
Riff 2
Intro x3
Riff 3
Riff 4
Intro x6
Riff 2





Calificar esta versión:
Aviso: Este fichero es trabajo propio de su transcriptor y representa su interpretación personal de la canción. El material contenido en esta página es para exclusivo uso privado, por lo que se prohibe su reproducción o retransmisión, así como su uso para fines comerciales.
Más versiones de De Pelicula (conejo), La Pestilencia
De Pelicula (conejo)
tablatura
De Pelicula (conejo) (ver 2)
tablatura
Descubre más canciones de La Pestilencia