Dulce Locura, La Oreja De Van Gogh (tablatura)

Autor: k1000a | 22698 visualizaciones

Sim                     Fam#
   Vendo el inventario de recuerdos de la historia más
e -------------2--------------------------2------------
B --3----3--------3-----3---2------2---------2-----2---
G ----4-----4--------4---------2------2---------2------
D -----------------------------------------------------
A --2--------------------------------------------------
E --------------------------2--------------------------

   Sol                      re
   bonita que en la vida escuché
e -------------3-----------------------2--1--0---------
B --3-----3-------3-----3----3-----3------------3------
G -----4-----4-------4----------2----2-----------------
D ---------------------------0-------------------------
A -----------------------------------------------------
E --3--------------------------------------------------


   Sim                     Fam#
   Vendo  el guión  de  la  película más triste y más
e -------------2--------------------------2------------
B --3----3--------3-----3---2------2---------2-----2---
G ----4-----4--------4---------2------2---------2------
D -----------------------------------------------------
A --2--------------------------------------------------
E --------------------------2--------------------------

   Sol                      La
   bella que en la vida pude ver
e -------------3------------------------2-1-0---------
B --3-----3-------3-----3----2----2------------0------
G -----4-----4-------4----------2----2----------------
D ----------------------------------------------------
A ---------------------------0------------------------
E --3-------------------------------------------------

   Sim                     Fam#
   Vendo los acordes, la brillante melodía
e -------------2--------------------------2------------
B --3----3--------3-----3---2------2---------2-----2---
G ----4-----4--------4---------2------2---------2------
D -----------------------------------------------------
A --2--------------------------------------------------
E --------------------------2--------------------------

   Sol                       re
   y la letra que en la vida compondré
e -------------3-----------------------2--1--0---------
B --3-----3-------3-----3----3-----3------------3------
G -----4-----4-------4----------2----2-----------------
D ---------------------------0-------------------------
A -----------------------------------------------------
E --3--------------------------------------------------



  Sim                     Fam#
  Vendo hasta el cartel donde se anuncia el estreno
e -------------2--------------------------2------------
B --3----3--------3-----3---2------2---------2-----2---
G ----4-----4--------4---------2------2---------2------
D -----------------------------------------------------
A --2--------------------------------------------------
E --------------------------2--------------------------


  Sol                      La
  del momento que en la vida viviré
e -------------3------------------------2-1-0---------
B --3-----3-------3-----3----2----2------------0------
G -----4-----4-------4----------2----2----------------
D ----------------------------------------------------
A ---------------------------0------------------------
E --3-------------------------------------------------


Mim                             Sim
Entiendo que te fueras, y ahora pago mi condena
     Do#                      Fa#  Fa#7
pero no me pidas que quiera vivir


       Sim          Sol              Re
Sin tu luna, sin tu sol sin tu dulce locura
   La              Sol
me vuelvo pequeña y menuda,
       La              Re
la noche que sueña y se burla
     Sol       Fa#         Sim
te intento abrazar y te esfumas


   Sim                    Fam#
   Vendo una cámara gastada que captaba
e -------------2--------------------------2------------
B --3----3--------3-----3---2------2---------2-----2---
G ----4-----4--------4---------2------2---------2------
D -----------------------------------------------------
A --2--------------------------------------------------
E --------------------------2--------------------------


   Sol                      La
   la mirada que en la vida grabaré
e -------------3------------------------2-1-0---------
B --3-----3-------3-----3----2----2------------0------
G -----4-----4-------4----------2----2----------------
D ----------------------------------------------------
A ---------------------------0------------------------
E --3-------------------------------------------------



   Sim                     Fam#
   Vendo dos entradas caducadas que eran
e -------------2--------------------------2------------
B --3----3--------3-----3---2------2---------2-----2---
G ----4-----4--------4---------2------2---------2------
D -----------------------------------------------------
A --2--------------------------------------------------
E --------------------------2--------------------------


   Sol                      La
   de segunda fila que en la vida romperé
e -------------3------------------------2-1-0---------
B --3-----3-------3-----3----2----2------------0------
G -----4-----4-------4----------2----2----------------
D ----------------------------------------------------
A ---------------------------0------------------------
E --3-------------------------------------------------

   Sim                    Fam#
   Vendo dos butacas reservadas hace siglos
e -------------2--------------------------2------------
B --3----3--------3-----3---2------2---------2-----2---
G ----4-----4--------4---------2------2---------2------
D -----------------------------------------------------
A --2--------------------------------------------------
E --------------------------2--------------------------

   Sol                      La
   y ahora caigo que en la vida me senté
e -------------3------------------------2-1-0---------
B --3-----3-------3-----3----2----2------------0------
G -----4-----4-------4----------2----2----------------
D ----------------------------------------------------
A ---------------------------0------------------------
E --3-------------------------------------------------


   Sim                    Fam#
   Vendo hasta el cartel donde se anuncia el estreno
e -------------2--------------------------2------------
B --3----3--------3-----3---2------2---------2-----2---
G ----4-----4--------4---------2------2---------2------
D -----------------------------------------------------
A --2--------------------------------------------------
E --------------------------2--------------------------


   Sol                      La
   del momento que en la vida viviré
e -------------3------------------------2-1-0---------
B --3-----3-------3-----3----2----2------------0------
G -----4-----4-------4----------2----2----------------
D ----------------------------------------------------
A ---------------------------0------------------------
E --3-------------------------------------------------


Mim                             Sim
Entiendo que te fueras, y ahora pago mi condena
     Do#                      Fa#  Fa#7
pero no me pidas que quiera vivir


       Sim          Sol              Re
Sin tu luna, sin tu sol sin tu dulce locura
   La                 Sol
me vuelvo pequeña y menuda,
    La                Re
la noche que sueña y se burla
     Sol       Fa#
te intento abrazar

       Sim          Sol              Re
Sin tu luna, sin tu sol sin tu dulce locura
   La                   Sol
llorando como un día de lluvia
    La              Re
mi alma despega y te busca
      Sol           Fa#         Sim
en un viaje del que no vuelve nunca


     Sim      Sol        La Sol             Re
Subiré cada noche a buscar a tu luna en mi tejado
      Fa#           Sim     Sol        La
el recuerdo de un abrazo que me hace tiritar


       Rem         La#              Fa
Sin tu luna sin tu sol sin tu dulce locura
   Do               La#
me vuelvo pequeña y menuda
    Do                 Fa       La#         la
la noche que sueña y se burla te intento abrazar

       Rem         La#              Fa
Sin tu luna sin tu sol sin tu dulce locura
   Do            La#
llorando como un día de lluvia
    Do            Fa
mi alma despega y te busca
      La#           la         Rem
en un viaje del que nunca volverá

Calificar esta versión:
Aviso: Este fichero es trabajo propio de su transcriptor y representa su interpretación personal de la canción. El material contenido en esta página es para exclusivo uso privado, por lo que se prohibe su reproducción o retransmisión, así como su uso para fines comerciales.
Más versiones de Dulce Locura, La Oreja De Van Gogh
Dulce Locura
acordes
Dulce Locura
tablatura
Dulce Locura
bajo
Descubre más canciones de La Oreja De Van Gogh