Dicen Que Dicen, La Oreja De Van Gogh (tablatura)

Autor: Anónimo | 43713 visualizaciones

INTRO
E||-----------------------------|-----------------------------|
B||-----------------------------|-----------------------------|
G||-----------------------------|---------------------11--10--|
D||--------11--10--9------------|-----------11--12------------|
A||--12-----------------11--10--|--9----12--------------------|
E||-----------------------------|-----------------------------|


                                                            
----------------------------|--------------------------10--|
----------------------------|------15----15----1510-------|
--9------------11-----------|------------------------------|
-------11--10--------11--9--|------------------------------|
----------------------------|--12--------------------------|
----------------------------|------------------------------|

Fuente original: LaCuerda
Colaborador original: Miguel Meza [sgt_pepper909@beatlezone.com]
Calificar esta versión:
Aviso: Este fichero es trabajo propio de su transcriptor y representa su interpretación personal de la canción. El material contenido en esta página es para exclusivo uso privado, por lo que se prohibe su reproducción o retransmisión, así como su uso para fines comerciales.
Más versiones de Dicen Que Dicen, La Oreja De Van Gogh
Dicen Que Dicen
acordes
Dicen Que Dicen (ver 2)
acordes
Dicen Que Dicen
tablatura
Descubre más canciones de La Oreja De Van Gogh