Te Quiero Tanto Tanto, La Onda Vaselina (bajo)

Autor: Anónimo | 18844 visualizaciones



Esta es la version en bajo que les dije que sacaria.
Como ya les dije si acompañan este bajeo con las pisadas
que yo ya saque en la otra transcripcion se oye super bien
pruebenlo:

INTRO: x2

E-4-----------6-------
A-------6------------4
D---------------------
G---------------------


Verso: x2
E-4------------6------
A-------6------------6
D---------------------
G---------------------

Pre-coro:
E-1-------------------
A----3--4--3—4—-3--1--
D--------------------1
G---------------------

Se repite el “Verso” y el “Pre-coro” 2 veces cada uno
y después viene el CORO:

CORO:
E-4--3-4--1---------
A------------3--4--6
D-------------------
G-------------------

E-4---1----------
A---------3--4--6
D----------------
G----------------

Esto se toca en la parte “te quiero tanto tanto tanto amor…”
E-6----
A----6-
D------
G------

Y luego esto 2 veces:
E-4-----------4-------
A-------6------------3
D---------------------
G---------------------

Todo se repite desde el “verso”, y eso es todo.
TE AMO EVELIN.





Calificar esta versión:
Aviso: Este fichero es trabajo propio de su transcriptor y representa su interpretación personal de la canción. El material contenido en esta página es para exclusivo uso privado, por lo que se prohibe su reproducción o retransmisión, así como su uso para fines comerciales.
Más versiones de Te Quiero Tanto Tanto, La Onda Vaselina
Te Quiero Tanto Tanto
acordes
Te Quiero Tanto Tanto (ver 2)
acordes
Te Quiero Tanto Tanto (ver 3)
acordes
Te Quiero Tanto Tanto (ver 4)
acordes
Te Quiero Tanto Tanto
bajo
Descubre más canciones de La Onda Vaselina