Para No Verte Más, La Mosca Tse-tse (bajo)

Autor: Anónimo | 31812 visualizaciones

INTRO
    C               Em               Dm               G
G-|---------------------------------------------------------------|
D-|-----------------2-2-----2-2------0-0-----0-0------5--3--2-----|
A-|-3-3-----3-3---------2-2-----2-2------0-0-----0-0-----------5--|
E-|-----3-3-----3-3-----------------------------------------------|

   C               Em               Dm                 G
G-|--------------------------------------------------------|
D-|-----------------2-2-----2-2------0-0-----0-0-------5---|
A-|-3-3-----3-3---------2-2-----2-2------0-0-----0-0-------|
E-|-----3-3-----3-3----------------------------------------|


VERSO

   C               Em               Dm               G
G-|---------------------------------------------------------------------|
D-|-----------------2-2-----2-2------0-0-----0-0------5-5--3-3--2-2-----|
A-|-3-3-----3-3---------2-2-----2-2------0-0-----0-0----------------5-5-|
E-|-----3-3-----3-3-----------------------------------------------------|


   C               Em               Dm               G
G-|----------------------------------------------------------------------|
D-|-----------------2-2------2--1----0-0-----0-0------5-5--3-3--2-2------|
A-|-3-3-----3-3---------2-2--------------0-0-----0-0-----------------5-5-|
E-|-----3-3-----3-3------------------------------------------------------|


   C               Em               Dm               G
G-|---------------------------------------------------------------------|
D-|-----------------2-2-----2-2------0-0-----0-0------5-5--3-3--2-2-----|
A-|-3-3-----3-3---------2-2-----2-2------0-0-----0-0----------------5-5-|
E-|-----3-3-----3-3-----------------------------------------------------|


   C               Em               Dm               G
G-|---------------------------------------------------------------------|
D-|-----------------2-2-----2-2------0-0-----0-0------5-5--3-3--2-2-----|
A-|-3-3-----3-3---------2-2-----2-2------0-0-----0-0----------------5-5-|
E-|-----3-3-----3-3-----------------------------------------------------|

   C               Em               Dm               G
G-|---------------------------------------------------------------|
D-|-----------------2-2-----2-2------0-0-----0-0------5--3--2-----|
A-|-3-3-----3-3---------2-2-----2-2------0-0-----0-0-----------5--|
E-|-----3-3-----3-3-----------------------------------------------|

   C               Em               Dm                 G
G-|--------------------------------------------------------|
D-|-----------------2-2-----2-2------0-0-----0-0-------5---|
A-|-3-3-----3-3---------2-2-----2-2------0-0-----0-0-------|
E-|-----3-3-----3-3----------------------------------------|


   C               Em               Dm               G
G-|---------------------------------------------------------------------|
D-|-----------------2-2-----2-2------0-0-----0-0------5-5--3-3--2-2-----|
A-|-3-3-----3-3---------2-2-----2-2------0-0-----0-0----------------5-5-|
E-|-----3-3-----3-3-----------------------------------------------------|


   C               Em               Dm               G
G-|----------------------------------------------------------------------|
D-|-----------------2-2------2--1----0-0-----0-0------5-5--3-3--2-2------|
A-|-3-3-----3-3---------2-2--------------0-0-----0-0-----------------5-5-|
E-|-----3-3-----3-3------------------------------------------------------|

    C    Em       Dm               G               
G-|----------------------------------------------------|
D-|---------------0-0-----0-0------5-5--3-3--2-2-------|
A-|------2---2-2------0-0-----0-0-----------------5-5--|
E-|-3--------------------------------------------------|


   C               Em               Dm               G
G-|----------------------------------------------------------------------|
D-|-----------------2-2------2--1----0-0-----0-0------5-5--3-3--2-2------|
A-|-3-3-----3-3---------2-2--------------0-0-----0-0-----------------5-5-|
E-|-----3-3-----3-3------------------------------------------------------|



   C               Em               Dm               G
G-|----------------------------------------------------------------------|
D-|-----------------2-2------2--1----0-0-----0-0------5-5--3-3--2-2------|
A-|-3-3-----3-3---------2-2--------------0-0-----0-0-----------------5-5-|
E-|-----3-3-----3-3------------------------------------------------------|


G-|--------------------------------------------------------|
D-|----5---5---5---5--3--2---------5---5---5---5--3--2-----|
A-|-3-----------------------5---3-----------------------5--|
E-|--------------------------------------------------------|


   C               Em               Dm               G
G-|----------------------------------------------------------------------|
D-|-----------------2-2------2--1----0-0-----0-0------5-5--3-3--2-2------|
A-|-3-3-----3-3---------2-2--------------0-0-----0-0-----------------5-5-|
E-|-----3-3-----3-3------------------------------------------------------|


   C               Em               Dm               G
G-|----------------------------------------------------------------------|
D-|-----------------2-2------2--1----0-0-----0-0------5-5--3-3--2-2------|
A-|-3-3-----3-3---------2-2--------------0-0-----0-0-----------------5-5-|
E-|-----3-3-----3-3------------------------------------------------------|


   C               Em               Dm               G
G-|----------------------------------------------------------------------|
D-|-----------------2-2------2--1----0-0-----0-0------5-5--3-3--2-2------|
A-|-3-3-----3-3---------2-2--------------0-0-----0-0-----------------5-5-|
E-|-----3-3-----3-3------------------------------------------------------|


   C               Em               Dm               G
G-|------------------------------------------------------------------------|
D-|-----------------2-2------2--1----0-0-----0-0------5-5--3-3--2-2--------|
A-|-3-3-----3-3---------2-2--------------0-0-----0-0-----------------5---5-|
E-|-----3-3-----3-3--------------------------------------------------------|

ESPERO QUE LA ENTIENDAN,  ES FACILISIMA,  SOLO ES CUESTIO DE QUE ESCUCHEN BIEN LA CANCION
Y LISTO.





|-------------------------------|
|-FRANCISCO-JAVIER-GARCIA-ROSAS-|
|-------------F-G-R-------------|
|-------------------------------|


CHOACHI, CUNDINAMARCA, COLOMBIA.


dudas o comentarios,  FGRmusic@hotmail.com
Calificar esta versión:
Aviso: Este fichero es trabajo propio de su transcriptor y representa su interpretación personal de la canción. El material contenido en esta página es para exclusivo uso privado, por lo que se prohibe su reproducción o retransmisión, así como su uso para fines comerciales.
Más versiones de Para No Verte Más, La Mosca Tse-tse
Para No Verte Más
acordes
Para No Verte Más (ver 2)
acordes
Para No Verte Más (ver 3)
acordes
Para No Verte Más
tablatura
Para No Verte Más (ver 2)
tablatura
Para No Verte Más
bajo
Para No Verte Más
teclado
Descubre más canciones de La Mosca Tse-tse