Los Amores Se Van, La Mosca Tse-tse (tablatura)

Autor: Anónimo | 21874 visualizaciones

BUENO...
ESTE ES UNO DE LOS SENCILLOS SEGUROS DEL NUEVO ALBUM ES UNA
CANCION MUY SUAVE PERO PEGAJOSA.



INTRO.

1)

e--------------------------
B-9----12---10-9-7-9-------
G---------------------9----
D--------------------------
A--------------------------
E--------------------------

2)

e--------------------------------14-
B-10--9--7--9-12--10--9--7----------
G---------------------------9-------
D-----------------------------------
A-----------------------------------
E-----------------------------------

3)

e---------14-12-11----12-----14-12--11--------
B-9---12-----------12-------------------12--9-
G---------------------------------------------
D---------------------------------------------
A---------------------------------------------
E---------------------------------------------

4)

e---------------------------------
B--10--9--7------------------------
G-------------9-------------10--9---
D------------------------------------
A-------------------------------------
E--------------------------------------


EN LA SEGUNDA INTRO SE TOCAN LA PARTE 3) Y 4)


EN LA ULTIMA PARTE DE LA CANCION VA UNA PARTE ASI

'LOS AMORES SE VANNNNNNNNNNNNNNNNNN'

e-16--14--12--14--16--14-//


LA CANCION TERMINA EN MI.




ESPERO LES GUSTE
UN SALUDO COLOMBIANO!

ARRIBA EL DEPORTIVO CALI!

ARRIBA EL AMARILLO, AZUL Y ROJO!

ARRIBA COLOMBIA!


                     C O L O M B I A
                          E  N 
                         P  A  Z
Calificar esta versión:
Aviso: Este fichero es trabajo propio de su transcriptor y representa su interpretación personal de la canción. El material contenido en esta página es para exclusivo uso privado, por lo que se prohibe su reproducción o retransmisión, así como su uso para fines comerciales.
Más versiones de Los Amores Se Van, La Mosca Tse-tse
Los Amores Se Van
acordes
Los Amores Se Van
tablatura
Descubre más canciones de La Mosca Tse-tse