Las Cenizas Quedaran, La Mocosa (tablatura)

Autor: gallo_15 | 18275 visualizaciones



1er Solo:

1.--------------------------------------------------------------
2.-----------17p14----------------------------------------------
3.--16b-------------16--16b--14------14--16--16b--14/13--13-----
4.--------------------------------------------------------------
5.--------------------------------------------------------------
6.--------------------------------------------------------------


1.--------------------------------------------------------------
2.--------------------------------------------------------------
3.--14--13------16--14--13--------------------------------------
4.--------------------------16--16------16----14------16----14--
5.------------------------------------------------16---------16
6.----------------------------------------------------------------


1.--------------------------------------------------------------
2.--------------------------------------------------------------
3.--------------------------------------------------------------
4.--14--14--------------------14------16----14------14--16b--14
5.------------16--14------16------16------------16------------16
6.--------------------17----------------------------------------


1.--------------------------------------------------------------
2.--------------------------------------------17----------------
3.-----------------14---------14-----14--16b>>>>16r--14-14-16-13
4.--14------14--16------16---------16---------------------16----
5.------16------------------------------------------------------
6.--------------------------------------------------------------


1.--------------------------------------------------------------
2.--------------------------------------------------------------
3.------14--13-----16--14--13-----------------------------------
4.-----------------------------16--16-----16--14------16----14--
5.------------------------------------------------16----------16
6.--------------------------------------------------------------


1.---------------------
2.---------------------
3.---------------------
4.----14------14--16--16
5.--------16-----------
6.---------------------



Solo 2:

1.------------------------------------------------------------
2.------------------------------------------------------------
3.------------------------------------------------------------
4.------------------------------------------------------------
5.--14b----14b-14r--12----------------12--14--14b>>14r--12--11
6.---------------------14--14-----14--------------------------

1.--------------------------------------------------------------
2.--------------------------------------------------------------
3.--------------------------------------------------------------
4.--------------------------------------------------------------
5.-12--11--12/14--12-11--7/9----9--7---9--7--12--14--14b-14r--12
6.----------------------------------------9-------------------14

1.--------------------------------------------------------------
2.--------------------------------------------------------------
3.--------------------------------------------------------------
4.-----------------------------------------14-------------------
5.--14b-14r--12--12--14--12--14b>>>>14b--14r--12------12--14--11
6.-------------------14------------------------------------14---

1.----------------------------------------------------
2.----------------------------------------------------
3.----------------------------------------------------
4.----------------------------------------------------
5.--12/14--12--11--7/9----9--7---9--7-----7-----7-----
6.------------------------------9------9-----9-----9--9


este punteo v para el instituto jose verdi





Comentarios del colaborador: este va para todo el colegio jose verdi de moreno

Calificar esta versión:
Aviso: Este fichero es trabajo propio de su transcriptor y representa su interpretación personal de la canción. El material contenido en esta página es para exclusivo uso privado, por lo que se prohibe su reproducción o retransmisión, así como su uso para fines comerciales.
Más versiones de Las Cenizas Quedaran, La Mocosa
Las Cenizas Quedaran
acordes
Las Cenizas Quedaran
tablatura
Descubre más canciones de La Mocosa