Gente Mala, La Mississippi Blues Band (bajo)

Autor: Chupe | 45596 visualizaciones

Gente Mala
La Mississippi
Tempo = 95

G |----|----------------------------|----------------------------|
D |----|----------------------------|----------------------------|
A |----|----------------------------|--6--6--6--6--6--6--6--6----|
E |----|--3--3--3--3--3--3--3--3----|----------------------------|


----------------------------|----------------------------|
----------------------------|----------------------------|
----------------------------|--6--6--6--6--6--6--6--6----|
--3--3--3--3--3--3--3--3----|----------------------------|


----------------------------|----------------------------|
----------------------------|----------------------------|
----------------------------|--6--6--6--6--6--6--6--6----|
--3--3--3--3--3--3--3--3----|----------------------------|


----------------------------|----------------------------|
----------------------------|----------------------------|
----------------------------|--6--6--6--6--6--6--6--6----|
--3--3--3--3--3--3--3--3----|----------------------------|


----------------------------|----------------------------|
----------------------------|----------------------------|
----------------------------|--3--3--3--3--5--5--5--5----|
--3--3--3--3--1--1--1--1----|----------------------------|


----------------------------|----------------------------|
----------------------------|----------------------------|
----------------------------|--6--------5L----------5----|
--3--3--3--3--3--3--3--3----|----------------------------|


----------------------------|----------------------------|
----------------------------|----------------------------|
----------------------------|--6--6--6--6--6--6--6--6----|
--3--3--3--3--3--3--3--3----|----------------------------|


----------------------------|----------------------------|
----------------------------|----------------------------|
----------------------------|--6--6--6--6--6--6--6--6----|
--3--3--3--3--3--3--3--3----|----------------------------|


----------------------------|----------------------------|
----------------------------|----------------------------|
----------------------------|--3--3--3--3--5--5--5--5----|
--3--3--3--3--1--1--1--1----|----------------------------|


----------------------------|----------------------------|
----------------------------|----------------------------|
----------------------------|--6--------5L----------5----|
--3--3--3--3--3--3--3--3----|----------------------------|


----------------------------|----------------------------|
----------------------------|----------------------------|
--3--3--3--3--3--3--3--3----|--6-------------------------|
----------------------------|-----------3L----------3----|


----------------------------|----------------------------|
----------------------------|----------------------------|
--3--3--3--3--3--3--3--3----|--6-------------------------|
----------------------------|-----------3L----------3----|


----------------------------|----------------------------|
----------------------------|----------------------------|
--6--6--6--6--6--6--6--6----|--6--6--6--6--6--6--6--6----|
----------------------------|----------------------------|


----------------------------|----------------------------|
----------------------------|----------------------------|
--6--6--6--6--6--6--6--6----|--6--6--6--6--5-------------|
----------------------------|----------------------------|


----------------------------|----------------------------|
----------------------------|----------------------------|
----------------------------|--6--6--6--6--6--6--6--6----|
--3--3--3--3--3--3--3--3----|----------------------------|


----------------------------|----------------------------|
----------------------------|----------------------------|
----------------------------|--6--6--6--6--6--6--6--6----|
--3--3--3--3--3--3--3--3----|----------------------------|


----------------------------|----------------------------|
----------------------------|----------------------------|
----------------------------|--3--3--3--3--5--5--5--5----|
--3--3--3--3--1--1--1--1----|----------------------------|


----------------------------|----------------------------|
----------------------------|----------------------------|
----------------------------|--6--------5L----------5----|
--3--3--3--3--3--3--3--3----|----------------------------|


----------------------------|----------------------------|
----------------------------|----------------------------|
----------------------------|--6--6--6--6--6--6--6--6----|
--3--3--3--3--3--3--3--3----|----------------------------|


----------------------------|----------------------------|
----------------------------|----------------------------|
----------------------------|--6--6--6--6--6--6--6--6----|
--3--3--3--3--3--3--3--3----|----------------------------|


----------------------------|----------------------------|
----------------------------|----------------------------|
----------------------------|--3--3--3--3--5--5--5--5----|
--3--3--3--3--1--1--1--1----|----------------------------|


----------------------------|----------------------------|
----------------------------|----------------------------|
----------------------------|--6--------5L----------5----|
--3--3--3--3--3--3--3--3----|----------------------------|


----------------------------|----------------------------|
----------------------------|----------------------------|
--3--3--3--3--3--3--3--3----|--6-------------------------|
----------------------------|-----------3L----------3----|


----------------------------|----------------------------|
----------------------------|----------------------------|
--3--3--3--3--3--3--3--3----|--6-------------------------|
----------------------------|-----------3L----------3----|


----------------------------|----------------------------|
----------------------------|----------------------------|
--6--6--6--6--6--6--6--6----|--6--6--6--6--6--6--6--6----|
----------------------------|----------------------------|


----------------------------|----------------------------|
----------------------------|----------------------------|
--6--6--6--6--6--6--6--6----|--6--6--6--6--5-------------|
----------------------------|----------------------------|


----------------------------|----------------------------|
----------------------------|----------------------------|
----------------------------|--6--6--6--6--6--6--6--6----|
--3--3--3--3--3--3--3--3----|----------------------------|


----------------------------|----------------------------|
----------------------------|----------------------------|
----------------------------|--6--6--6--6--6--6--6--6----|
--3--3--3--3--3--3--3--3----|----------------------------|


----------------------------|----------------------------||
----------------------------|----------------------------||
----------------------------|--3--3--3--3--5--5--5--5----||
--3--3--3--3--1--1--1--1----|----------------------------||


---------------------------|---------------------------||
o--------------------------|--------------------------o||
o--------------------------|--3--3--3--3--5--5--5--5--o||
-3--3--3--3--1--1--1--1----|---------------------------||


----------------------------|----------||
----------------------------|----------||
----------------------------|--3--5----||
--3--3--3--3--1--1--1--1----|----------||
Calificar esta versión:
Aviso: Este fichero es trabajo propio de su transcriptor y representa su interpretación personal de la canción. El material contenido en esta página es para exclusivo uso privado, por lo que se prohibe su reproducción o retransmisión, así como su uso para fines comerciales.
Más versiones de Gente Mala, La Mississippi Blues Band
Gente Mala
tablatura
Gente Mala
bajo
Descubre más canciones de La Mississippi Blues Band