Búfalo, La Mississippi Blues Band (tablatura) (ver 2)

Autor: [anoni]Rockandperez[anoni] | 25740 visualizaciones

RIFF:

1|--------------------------|---------------------|--------------------------|---------------------|
2|--------------------------|---------------------|--------------------------|---------------------|
3|--------------------------|---------------------|--------------------------|---------------------|
4|-------------2------------|-----------2---------|-------------2------------|---------------------|
5|--------------------------|----------------0----|--------------------------|----2-----3------2---|
6|-0-----3--0-------3--0----|-0--3--0-----3-------|-0-----3--0-------3--0----|-3-----3------3------|


1|--------------------------|---------------------|--------------------------|--X----X-X-------------|
2|--------------------------|---------------------|--------------------------|--X----X-X-------------|
3|--------------------------|---------------------|--------------------------|--X----X-X-------------|
4|-------------2------------|-----------2---------|-------------2------------|--5----7-7-------------|
5|--------------------------|----------------0----|--------------------------|--5----7-7-------------|
6|-0-----3--0-------3--0----|-0--3--0-----3-------|-0-----3--0-------3--0----|--3----5-5-------------|


Vengo empujando de lejos 
Como un río viejo, 
Que no va a parar.

Unos dicen que soy brusco 
Porque siempre busco 
Ir con la verdad 

Yo soy manso entre los mansos 
Pero si me canso 
Soy un temporal

Tengo el corazón de acero 
Y mi alma de cuero, 
lleva un animal


Estribillo
G        D           A
Y nunca miro para atrás 
E/F#/G/F#           G
Como un Búfalo,
G            D        A
Es que el instinto puede más 
E/F#/G/F#           G
Como un Búfalo,
G            D    Bm
Va a ser mejor, mejor no molestes mi búfalo interior 


No tengo en la lengua pelos 
Yo no doy consuelos 
Si no va, no va 

No me anden sobando el lomo 
Todo lo perdono, 
Menos falsedad 

Cuando yo doy mi palabra 
Aunque el cielo se abra, 
La voy a cumplir,

Con toda la carne al fuego 
Pongo sangre y huevo 
Es lo que aprendí. 


Estribillo
G        D           A
Y nunca miro para atrás 
E/F#/G/F#           G
Como un Búfalo,
G            D        A
Es que el instinto puede más 
E/F#/G/F#           G
Como un Búfalo,
G            D    Bm
Va a ser mejor, mejor no molestes mi búfalo interior 


Solo de guitarra

(Repite Estribillo)

RIFF FINAL:

1|---------------------|
2|---------------------|
3|---------------------|
4|---------------------|
5|----2-----3------2---|
6|-3-----3------3------|
Calificar esta versión:
Aviso: Este fichero es trabajo propio de su transcriptor y representa su interpretación personal de la canción. El material contenido en esta página es para exclusivo uso privado, por lo que se prohibe su reproducción o retransmisión, así como su uso para fines comerciales.
Más versiones de Búfalo, La Mississippi Blues Band
Bufalo
tablatura
Búfalo (ver 2)
tablatura
Descubre más canciones de La Mississippi Blues Band