Donde Vamos, La Mancha De Rolando (tablatura) (ver 2)

Autor: Anónimo | 38796 visualizaciones

punteo final:

e|----------------------------------------------------
B|----------------------------------------------------
G|----------------------------------------------------
D|----11-12----11-11-12----11-11-12----11-11-12----14-
A|-12-------14----------14----------14----------14----
E|----------------------------------------------------

--------------------------------------------------------------
--------------------------------------------------------------
--------------------------------------------------------------
-12-11-12-11-12-11-12-11-12-11-12-11--------11-12----11-11-12-
-------------------------------------14--12-------14----------
--------------------------------------------------------------

----------------------------------------------------------------
-------------------------------------------14-------15-------14-
-------------------------------------------------14-------14----
----11-11-12----11-11-12----14--11--11-11-----16-------16-------
-14----------14----------14-------------------------------------
----------------------------------------------------------------

-12----12--------------------------------------------12----
----14----14v-----12----------12--14-15-14-----------------
---------------14----14---14---------------14-11--14----14-
-----------------------------------------------------------
-----------------------------------------------------------
-----------------------------------------------------------

---------------------------12----------12----12----12----12----12----
-14v-14v-14v-14v-14v-14-14-14-14-14-14-14-14----14----14----14----14-
---------------------------------------------------------------------
---------------------------------------------------------------------
---------------------------------------------------------------------
---------------------------------------------------------------------

-12-12b---12-----------------------------------------------------
--------------15-14-15-14-12-------14----14-15-14----14----14----
-----------------------------14-14----14----------14----14----14-
-----------------------------------------------------------------
-----------------------------------------------------------------
-----------------------------------------------------------------

----------------------------------------12----------
-14-15-14----14----14----14-15-14----14----15-14-15-
----------14----14----14----------14----------------
----------------------------------------------------
----------------------------------------------------
----------------------------------------------------

-------------------------------------------------12b-
----14-17-14-15-14-17-14-15-14-17-14-15-14-17-14-----
-14--------------------------------------------------
-----------------------------------------------------
-----------------------------------------------------
-----------------------------------------------------

--19-17----17-19-17----17--19b--19b--19b-19b-19b-17v-|
--------19----------19-------------------------------|
-----------------------------------------------------|
-----------------------------------------------------|
-----------------------------------------------------|
-----------------------------------------------------|
Calificar esta versión:
Aviso: Este fichero es trabajo propio de su transcriptor y representa su interpretación personal de la canción. El material contenido en esta página es para exclusivo uso privado, por lo que se prohibe su reproducción o retransmisión, así como su uso para fines comerciales.
Más versiones de Donde Vamos, La Mancha De Rolando
Donde Vamos
acordes
Donde Vamos (ver 2)
acordes
Donde Vamos
tablatura
Donde Vamos (ver 2)
tablatura
Descubre más canciones de La Mancha De Rolando