Calavera, La Mancha De Rolando (bajo)

Autor: Anónimo | 25488 visualizaciones

Bueno, la verdad es una boludez total porque el pajero de
carlitos toca todo lo mismo durante la cancion, aca les dejo
el riff, y abajo un arreglo que le meti para no tocar solo las tonicas:

Riff: (Sol-Re-Do-Re)
G|--------------------------------------------|
D|--------------------------------------------|
A|-------5--3---5-------5--3---5--------------|
E|---3~-------------3~------------------------|

Arreglo flashero:

G|----------------------------------------------|
D|----------------------------------------------|
A|------5-3-3-5/7/5-3----------5-3-3-5/7/5-3----|
E|--3-3--------------5-3---3-3--------------5-3-|

Aclaro la parte del 5/7/5: el primero es un slide de Re a Mi, y el segundo
es el slide de vuelta, del Mi a Re sin volver a tocar la nota.


Bueno, espero que les sirva
un abrazo de oso fieras, nos vemos ..
Cualquier duda, cosa que no creo por la sencilles del tema:
rampi17@hotmail.com
Calificar esta versión:
Aviso: Este fichero es trabajo propio de su transcriptor y representa su interpretación personal de la canción. El material contenido en esta página es para exclusivo uso privado, por lo que se prohibe su reproducción o retransmisión, así como su uso para fines comerciales.
Más versiones de Calavera, La Mancha De Rolando
Calavera
acordes
Calavera
bajo
Descubre más canciones de La Mancha De Rolando